Suicidal Tendencies - Send Me Your Money Chords & Tabs

 

Send Me Your Money Chords & Tabs

Suicidal Tendencies Chords & Tabs

Version: 1 Type: Tab 0 ratings
1 star 2 stars 3 stars 4 stars 5 stars
comments

Send Me Your Money Tab

   
Band:  Suicidal Tendencies
Album: Lights..Camera..Revolution
Song:  Send Me Your Money

Copyright (c)  (Epic) (1990)
Version 1.0 - (01/05/05)

Transcribed By: Steve
Email:          stephen.elvidge1@ntlworld.com


.  - palm mute           /  - slide up to
\  - slide down to       ~  - vibrato
h  - hammer on           b  - Bend
p  - pull off            Suffixes for bend
t  - tap                 f  - full bend    h - half bend
ph - pinched harmonic    q  - quarter bend t - tap bend
*  - see comment         ^  - Hold bend    r release bend
x  - Stuccatto           ~  - vibrato bend
,  - slight palm mute    () - ghost note, sustained note
"  - tremolo note        <> - Trill

Tunning E A D G B E
 

 Intro

 Drums and bass


E--------------------------------|
B--------------------------------|
G--------------------------------|
D--------------------------------|
A-\2-----------------------------|
E-\0-----------------------------| Rpt

E-----------------------------------------------------|
B-----------------------------------------------------|
G-----------------------------------------------------|
D-----------------------------------------------------|
A-\2----------------(2)---------------x\-------x\-----|
E-\0----------------(0)---------------x\-------x\-----|

 Main Riff

E-----------------------------------|
B-----------------------------------|
G-----------------------------------|
D-----------------------------------|
A-2-2-6---5---7-7--2-2-5---6---5-5--|
E-0-0-4p0-3p0-5-5--0-0-3p0-4p0-3-3--| Rpt 3 X

E-------------------------------------------------|
B-------------------------------------------------|
G-------------------------------------------------|
D---------------------------SPOKEN VOCALS---------|
A-2-2-6---5---7-7--2--------------------------5---|
E-0-0-4p0-3p0-5-5--0--------------------------3p--|

 Pre Verse

  [-------------PM----------------]
E-----------------------------------|
B-----------------------------------|
G-----------------------------------|
D-----------------------------------|
A-2-2-6---5---7-7--2-2-5---6---5-5--|
E-0-0-4p0-3p0-5-5--0-0-3p0-4p0-3-3--| Rpt 4 X

 Verse
[ Tab from: http://www.guitartabs.cc/tabs/s/suicidal_tendencies/send_me_your_money_tab.html ]
E-------------------------------|
B-------------------------------|
G-------------------------------|
D-------------------------------|
A-2-----------------------------|
E-0-----------------------------|

E-------------------------------|
B-------------------------------|
G-------------------------------|
D-------------------------------|
A-5-2---------------------------|
E-3p0---------------------------|

E-------------------------------|
B-------------------------------|
G-------------------------------|
D-------------------------------|
A-\2----------------------------|
E-\0----------------------------|

E-----------------------------------------------------|
B-----------------------------------------------------|
G-----------------------------------------------------|
D-----------------------------------------------------|
A-5-2----------------(2)---------------x\-------x\----|
E-3p0----------------(0)---------------x\-------x\----|

 Chorus, Rpt Main Riff 4 X
 Rpt Verse substitue last riff with riff below

E-----------------------------------------------------|
B-----------------------------------------------------|
G-----------------------------------------------------|
D-----------------------------------------------------|
A-5-2----------------------------------x\-------x\----|
E-3p0----------------------------------x\-------x\----|

 Rpt Chorus

 Mid section
 Bass on own.
 Main Riff once
 Silence

E------------------------------------|
B------------------------------------|
G------------------------------------|
D------------------------------4/5---|
A-2-2-6---5---7-7--2-2-5---6---5/6---|
E-0-0-4p0-3p0-5-5--0-0-3p0-4p0-----0-|

 Bass on own. 

E-------|
B-------|
G-------|
D-------|
A-12\---|
E-12\---|
 
 Rpt Main Riff
 One guitar on own Rpts Main Riff
 Rpt Chorus.
 Rpt Verse
 Rpt Chorus
 Rpt Verse
 Rpt Chorus
 Rpt Pre Verse riff 3 X

   [--------PM--------]            Trem Dive
E------------------------------------------------|
B------------------------------------------------|
G---9-9-9-9-9-9-9-9-9-9---9\---------------------|
D---9-9-9-9-9-9-9-9-9-9-5-9\-9--9----------------|
A-2-7-7-7-7-7-7-7-7-7-7-3----7--7----------------|
E-0--------------------------0--0\---------------|




END
Comments