Suicidal Tendencies - Pop Songs Chords & Tabs

 

Pop Songs Chords & Tabs

Suicidal Tendencies Chords & Tabs

Version: 1 Type: Tab 0 ratings
1 star 2 stars 3 stars 4 stars 5 stars
comments

Pop Songs Tab

Pop Songs
S U I C I D A L   T E N D E N C I E S
Tabbed By Aaron Bridgeman (rokken@sicness.net)

http://bogans.arecool.net

VERSE:
e|-------------------------------------------------|
B|-------------------------------------------------|
G|-5--5--5-5-5-------------7--7--7-7-7-------------|
D|-5--5--5-5-5-7--7--7-7-7-7--7--7-7-7-8--8--8-8-8-|
A|-3--3--3-3-3-7--7--7-7-7-5--5--5-5-5-8--8--8-8-8-|
E|-------------5--5--5-5-5-------------6--6--6-6-6-|
[ Tab from: http://www.guitartabs.cc/tabs/s/suicidal_tendencies/pop_songs_tab.html ]
DISTORTED VERSE:
e|-------------------------------------------------|
B|-------------------------------------------------|
G|-------------------------------------------------|
D|-5--5--5-5-5-------------7--7--7-7-7-------------|
A|-3--3--3-3-3-7--7--7-7-7-5--5--5-5-5-8--8--8-8-8-|
E|-------------5--5--5-5-5-------------6--6--6-6-6-|

CHORUS:
e|--------------------------|
B|--------------------------|
G|--------------------------|
D|-3-5--5-3-5--5-3-5--------|
A|-1-3--3-1-3--3-1-3-5--5-5-|
E|-------------------3--3-3-|

All the main parts.
Comments