Suicidal Tendencies - Pledge Your Allegiance Chords & Tabs

 

Pledge Your Allegiance Chords & Tabs

Suicidal Tendencies Chords & Tabs

Version: 1 Type: Tab 0 ratings
1 star 2 stars 3 stars 4 stars 5 stars
comments

Pledge Your Allegiance Tab

----------------------------------------|
----------------------------------------|
----------------------------------------|
-----------------------0-------0--------|
----------6----------4-------2----------|
-------0-7---7------5-------3-----------|

[ Tab from: http://www.guitartabs.cc/tabs/s/suicidal_tendencies/pledge_your_allegiance_tab.html ]
----------------|
----------------|
----------------|
-----9--10--12--|
-----7--8---10--|
-----0--0---0---|


-----------------------------------|
-----------------------------------|
-----------------------------------|
----------7-9-7-----10-12----------|
----------5/7/9-----8--10----------|
----------0-0-0-----0--0-----------|

Comments