Suicidal Tendencies - Institutionalized Chords & Tabs

 

Institutionalized Chords & Tabs

Suicidal Tendencies Chords & Tabs

Version: 4 Type: Tab 0 ratings
1 star 2 stars 3 stars 4 stars 5 stars
comments

Institutionalized Tab

   
Band:  Suicidal Tendencies
Album: Suicidal Tendencies
Song:  Institutionalised

Copyright (c)  (Virgin) (1983)
Version 1.0 - (21/06/05)

Transcribed By: Steve
Email:          stephen.elvidge1@ntlworld.com



.  - palm mute           /  - slide up to
\  - slide down to       ~  - vibrato
h  - hammer on           b  - Bend
p  - pull off            Suffixes for bend
t  - tap                 f  - full bend    h - half bend
ph - pinched harmonic    q  - quarter bend t - tap bend
*  - see comment         ^  - Hold bend    r release bend
x  - Stuccatto           ~  - vibrato bend
,  - slight palm mute    () - ghost note, sustained note
"  - tremolo note        <> - Trill

Tunning E A D G B E
 

 Main / Verse Riff


E-------------------|
B-------------------|
G-8--8-8/9--9-9-9-\-|
D-9--9-9/10-101010\-|
A-9--9-9/10-101010\-|
E-7--7-7/8--8-8-8-\-|

E-------------------|
B-------------8-8-\-|
G-8--8-8/9--9-9-9-\-|
D-9--9-9/10-101010\-|
A-9--9-9/10-101010\-|
E-7--7-7/8--8-8-8-\-|

  ~~~~~ ~~~~      ~~~~~~
E------------------------|
B------------------------|
G------------------------|
D------------------------|
A-6----7----6-7-9--------|
E-----------------8------|

E-7--7-7/8-----8\---|
B-7--7-7/8-----8\---|
G-8--8-8/9----------|
D-------------------|
A-------------------|
E-------------------| Rpt 4 X

 Rpt Verse Riff 22 X with ad-lib guitar solo.

 Bridge

E-----------------|
B-----------------|
G---9------10-----|
D-9-9-9-10-10-10--|
A-9-7-9-10-8--10--|
E-7---7-8-----8---| Rpt 4 X

 Chorus
[ Tab from: http://www.guitartabs.cc/tabs/s/suicidal_tendencies/institutionalized_tab_ver_4.html ]
E--------------------------------------------------|
B--------------------------------------------------|
G-3-3-3-3-3-3-3-3-3-3-3-3-3-3-3-3-6-6-6-6-5-5-5-5--|
D-4-4-4-4-4-4-4-4-4-4-4-4-4-4-4-4-7-7-7-7-6-6-6-6--|
A-4-4-4-4-4-4-4-4-4-4-4-4-4-4-4-4-7-7-7-7-6-6-6-6--|
E-2-2-2-2-2-2-2-2-2-2-2-2-2-2-2-2-5-5-5-5-4-4-4-4--|

            Pick scrape
E----------------------------------------|
B----------------------------------------|
G-3-3-3-3---------------6-6-6-6-5-5-5-5--|
D-4-4-4-4-------\-\-----7-7-7-7-6-6-6-6--|
A-4-4-4-4--------\-\----7-7-7-7-6-6-6-6--|
E-2-2-2-2---------------5-5-5-5-4-4-4-4--|

E----------------------------------|
B----------------------------------|
G-3-3-3-3-3-3-3-3-6-6-6-6-5-5-5-5--|
D-4-4-4-4-4-4-4-4-7-7-7-7-6-6-6-6--|
A-4-4-4-4-4-4-4-4-7-7-7-7-6-6-6-6--|
E-2-2-2-2-2-2-2-2-5-5-5-5-4-4-4-4--| Rpt

 
 Rpt Bridge
 
   ~~~~~~~~~~~~~~~~~~~~~~~~~~~~~~~~~~~~~~~~~~ to feedback
E-------------------------------------------------------------------|
B-------------------------------------------------------------------|
G-------------------------------------------------------------------|
D-9-------------------------9---------------------------------------|
A-9-------------------------9---------------------------------------|
E-7-------------------------7---------------------------------------|

 Rpt Verse
 Rpt Bridge
 Rpt Chorus
 Rpt Bridge
 Rpt Verse
 Rpt Bridge
 Rpt Chorus
 Rpt Bridge

   ~~~~~~~~~~~~~~~~~~~~~~~~~~~~~~~~~~~~~~~~~~ 
E-------------------------------------------------------------------|
B-------------------------------------------------------------------|
G-------------------------------------------------------------------|
D-9-------------------------9----------------------------------9\---|
A-9-------------------------9----------------------------------9\---|
E-7-------------------------7----------------------------------7\---|



END
Comments