Suicidal Tendencies - I Shot The Devil Chords & Tabs

 

I Shot The Devil Chords & Tabs

Suicidal Tendencies Chords & Tabs

Version: 2 Type: Bass Tab 0 ratings
1 star 2 stars 3 stars 4 stars 5 stars
comments

I Shot The Devil Bass Tab

Song: I Shot The Devil 
Artist: Suicidal Tendencies 
Emty981@aol.com 


Intro and after last chorus 


G |----------------------------------------------------------- 
D |----------------------------------------------------------- 
A |-----7----------------------7------------------------------ 
E |---------0--33-55-66-55-7-------------------------------- 

Verse / Solo 

G |----------------------------------------------------------- 
D |----------------------------------------------------------- 
A |----------------------------------------------------------- 
E |----00-3-55------------------------------------------------ 
[ Tab from: http://www.guitartabs.cc/tabs/s/suicidal_tendencies/i_shot_the_devil_btab_ver_2.html ]
Chorus 

G|-------------------------------------------------------------------------------- 
D|-------------------------------------------------------------------------------- 
A|----33-3--------555-555---33-3-------------33-3------555-555--33-3------666-6-66 
E|----------55-5-----------------555-111-111------55-5---------------55-5--------- 

Outro 

G |------------------------------------------------------------ 
D |------------------------------------------------------------ 
A |------------------------------------------------------------ 
E |----0---0---0---------------------------------------------- 

Let E notes ring in outro. 
Comments