Suicidal Tendencies - Hearing Voices Chords & Tabs

 

Hearing Voices Chords & Tabs

Suicidal Tendencies Chords & Tabs

Version: 1 Type: Tab 0 ratings
1 star 2 stars 3 stars 4 stars 5 stars
comments

Hearing Voices Tab

   
 ------------------------------------------
 SUICIDAL TENDENCIES - "Hearing Voices"
 From "How Will I Laugh Tomorrow..." (1988)
 ------------------------------------------                              


Freely transcribed by nicolar@normandnet.fr (Nov 98)
=> any comment is welcome

-=-=-=-=-=-=-=-=-=-=-=-=- TABLATURE EXPLANATION -=-=-=-=-=-=-=-=-=-=-=-=-
6~		: Left hand vibrato
5h7 | 7p5	: Hammer-on | Pull-off
3/8 | 8\3	: Slide-up | Slide-down
(7)		: Non-struck note (ex: 3/(7))
PM		: Right hand/Palm muting
-=-=-=-=-=-=-=-=-=-=-=-=-=-=-=-=-=-=-=-=-=-=-=-=-=-=-=-=-=-=-=-=-=-=-=-=-
To get the rhythm you need to listen to the record.



*** Rhythm Guitar part ***

  x3...                                                         ...
e:-----------------------------------------------------------------|
B:-----------------------------------------------------------------|
G:-----------------------------------------------------------------|
D:-----------------------------------------------------------------|
A:-7-7-7-7-5-7-5-7-7-7-7-7-7-7-7-7-5-5-5-5-8-8-8-7-7-7-7-7-7-7-7-7-|
E:-----------------------------------------------------------------|
   PM...
                                                         


e:-----------------------------------------------------|
B:-----------------------------------------------------|
G:---------------------------------------------------9-|
D:---------------------------------------------------9-|
A:-7-7-7-7-5-7-5-7-7-7-7-7-7-7-7-7-5-5-5-5-8-8-8-7-7-7-|
E:-----------------------------------------------------|
                                                     x7

[ Tab from: http://www.guitartabs.cc/tabs/s/suicidal_tendencies/hearing_voices_tab.html ]
  x8...                         ...
e:---------------------------------|
B:---------------------------------|
G:---------------------------------|
D:-----7/(8)---------7/(8)---5-7-8-|
A:-----7/(8)---------7/(8)---5-7-8-|
E:-0-0-5/(6)-0-0-0-0-5/(6)-0-3-5-6-|



  x4...                                                  ...
e:----------------------------------------------------------|
B:----------------------------------------------------------|
G:----------------------------------------------------------|
D:-----------------------5-7-8-----2----3----3\(2)--0-0-0-2-|
A:-----------------------5-7-8-----2----3----3\(2)--0-0-0-2-|
E:-0-0-0-0-0-0-0-0-0-0-0-3-5-6-0-0--0-0--0-0------0---------|

                                     

  x4...                         ...
e:---------------------------------|
B:---------------------------------|
G:---------------------------------|
D:-------------7\(5)-----------7-9-|
A:-------------7\(5)-----------7-9-|
E:-0h2-2-2-2-0-5\(3)-0h2-2-2-2-5-7-|

e:------------------------------------------------|
B:------------------------------------------------|
G:------------------------------------------------|
D:-9-7/(9)-7/(9)---------------7-10-9-------------|
A:-7-5/(7)-5/(7)-7-7-7-7-7-7-7-5-8--7-7-7-7-7-7---|
E:------------------------------------------------|
                                                \


                                               ... ...
e:------------------------------------------------|---|
B:------------------------------------------------|---|
G:------------------------------------------------|---|
D:-2-0-2-0-2--------------0-3--2-2-0-2-3-2-0--9---|---|
A:-2-0-2-0-2--------------0-3--2-2-0-2-3-2-0--7---|---|
E:----------0-0-0-0-0-0-0----0--------------0-----|---|
Comments