Suicidal Tendencies - Gaigan Go Home Chords & Tabs

 

Gaigan Go Home Chords & Tabs

Suicidal Tendencies Chords & Tabs

Version: 1 Type: Bass Tab 0 ratings
1 star 2 stars 3 stars 4 stars 5 stars
comments

Gaigan Go Home Bass Tab

Song:	   Gaigan go home
Band:	   Suicidal Tendencies
Album:	   Freedumb

Tabbed by: Christian Reindel (creindel@gmx.de)
       any questions or corrections- e-mail me

Intro
            3x              1x
G:------------------------------------:
D:-----9-9-9-----------9-9-9----------:
A:-----7-7-7---8--9----7-7-7--8-9-8---:
E:-------------6--7-----------6-7-6---:

Verse

G:---------------------------------:
D:---------------------------------:
A:--6-6----------------------------:
E:------5-5-6--6-5-----------------:

Chorus
[ Tab from: http://www.guitartabs.cc/tabs/s/suicidal_tendencies/gaigan_go_home_btab.html ]
G:---------------------------------:
D:--8-8----------------------------:
A:--6-6-7-7-8--8-7-----------------:
E:------5-5-6--6-5-----------------:

            3x              1x
G:------------------------------------:
D:-----9-9-9-----------9-9-9----------:
A:-----7-7-7---8--9----7-7-7--8-9-8---:
E:-------------6--7-----------6-7-6---:

back to verse

Bridge

G:----------------------------------:
D:----------------------------------:
A:--4-4-/-8-8----4-4-/-10-10-10-----:
E:--2-2-/-6-6----2-2-/--8--8--8-----:

G:----------------------------------:
D:----------------------------------:
A:--4-4-/-8-8----4-4-4--------------:
E:--2-2-/-6-6----2-2-2--------------:


End
Comments