Suicidal Tendencies - Freedumb Chords & Tabs

 

Freedumb Chords & Tabs

Suicidal Tendencies Chords & Tabs

Version: 1 Type: Bass Tab 0 ratings
1 star 2 stars 3 stars 4 stars 5 stars
comments

Freedumb Bass Tab

Song:       Freedumb

Band:	    Suicidal Tendencies

Album: 	    Freedumb

Written by: Suicidal Tendencies

Tabbed by:  D.Thornicroft (Dthornicroft@Hotmail.com)


    INTRO			       VERSE 1

G[----------]		[--------------------------------]
D[----------]		[--------------------------------]
A[---3--5---] x1	[--8-8---3-3-3---11-11-11-11-11--] x7
E[----------]		[--------------------------------]


		VERSE 2

G[-----------------------------------]
D[-----------------------------------]
A[---0-0-0---3-3-3---0-0-0---5-5-5---] x4
E[-----------------------------------]



		PRE-CHORUS
[ Tab from: http://www.guitartabs.cc/tabs/s/suicidal_tendencies/freedumb_btab.html ]
G[------------------------------------]
D[-------5------7------8------10------]
A[------------------------------------] x1
E[---3-3----5-5----6-6----8-8---------]
     S S P  S S P  S S P  S S  P


		CHORUS

G[-----------------------------------------------------------]
D[----------------------------------------11--11--11--11--11-]
A[-----------------------------------------------------------] x4
E[-3-3-3-3--5-5-5-5--6-6-6-6--8-8-8-8---9--9--9--9--9--9-----]



INTRO        x1		[ TAB EXPLANATION: ]
				[		   ]
VERSE 1      x16		[ P= POP	   ]
				[		   ]
CHORUS       x5		[ S= SLAP	   ]

VERSE 2      x4

VERSE 1      x8

Comments