Suicidal Tendencies - Cyco Vision Chords & Tabs

 

Cyco Vision Chords & Tabs

Suicidal Tendencies Chords & Tabs

Version: 2 Type: Bass Tab 0 ratings
1 star 2 stars 3 stars 4 stars 5 stars
comments

Cyco Vision Bass Tab

Suicidal Tendencies - Cyco Vision
Tabbed by Camel (haha1441haha@hotmail.com)

RIFF 1
G|--------------------------------------------------|
D|--------------------------------------------------|
A|--2--2--2--2--3--3--3--3--0--0--0--0--0--0--0--0--|
E|--------------------------------------------------|

RIFF 2
G|--------------------------|
D|--------------------------|
A|--------------------------|
E|--2--0-----2--x--x--x--x--|
[ Tab from: http://www.guitartabs.cc/tabs/s/suicidal_tendencies/cyco_vision_btab_ver_2.html ]
RIFF 3
G|-------------------------------------------------|
D|-------------------------------------------------|
A|--------------4/5--4-/5--------------------------|
E|--2--2-----2-------------0--0--0--0--0--0--0--0--|

RIFF 4
G|---------------------------|
D|---------------------------|
A|---------------------------|
E|--2--0-----2--/--/-x-\--\--|

RIFF 5
G|-----------------------------|
D|-----------------------------|
A|-----------------------------|
E|--2--2--2--2--2--2--2--2--2--|


*Order*
E-0- (Let Ring)
Riff 1
Riff 2
Riff 4
Riff 3
Riff 2
Riff 4
Riff 3
Riff 2
Riff 1
Riff 2
Riff 3
Riff 5

I think thats how it goes. I'm probably wrong but it's better then nothing.
Comments