Suicidal Chicken Head - Walking On The Street Chords & Tabs

 

Walking On The Street Chords & Tabs

Suicidal Chicken Head Chords & Tabs

Version: 1 Type: Tab 0 ratings
1 star 2 stars 3 stars 4 stars 5 stars
comments

Walking On The Street Tab

           -=[Cifras de Walking in the Street]=-

by: Sansão, Maggi and Busato         WWW.SCHBAND.HPG.COM.BR

Intro: 2 vezes
Guitarra 1

e|--------------------------------------------------------------------|
b|--------------------------------------------------------------------|
g|--------------------------------------------------------------------|
d|------------------------------3-------------------------------------|
a|-3-2-3-2-3-2-0---3-2-3-2-3-2-----3-2-3-2-3-2-----3-2-3-2-3-2--------|
e|----------------------------------------------3----------------0----|

Guitarra 2

e|------------------------------|
b|------------------------------|
g|------10----------------------|
d|--7---10-----5----2-----------|
a|--7----8-----5----2-----------|
e|--5----------3----0-----------|

Versos

e|------------------------------------------------------------|
b|------------------------------------------------------------|
g|---------------10101010-------------------------------------|
d|--7-7-7-7-7----10101010-----5-5-5-5-5----2-2-2-2-2----------|
a|--7-7-7-7-7----8-8-8-8-8----5-5-5-5-5----2-2-2-2-2----------|
e|--5-5-5-5-5-----------------3-3-3-3-3---0-0-0-0-0-----------|

Refrão
[ Tab from: http://www.guitartabs.cc/tabs/s/suicidal_chicken_head/walking_on_the_street_tab.html ]
e|------------------------------------------------------------|
b|------------------------------------------------------------|
g|----------------10101010--9--7-7-7-7-7--9-9-9-9-9-----------|
d|--7-7-7-7-7-----10101010--9--7-7-7-7-7--9-9-9-9-9-----------|
a|--7-7-7-7-7----8-8-8-8-8--7--5-5-5-5-5--7-7-7-7-7-----------|
e|--5-5-5-5-5-------------------------------------------------|

Solo

e|---------------------------13--------12-------------------------|
b|--------------------------------15----------------18------------|
g|------10--12--9-----14--------------------14---------12----9----|
d|---7------------------------------------------------------------|
a|----------------------------------------------------------------|
e|----------------------------------------------------------------|

Solo ( final )

e|----13--12--10-----13--12--10-----13---12--15--13---12---10--------|
b|-------------------------------------------------------------------|
g|-------------------------------------------------------------------|
d|-------------------------------------------------------------------|
a|-------------------------------------------------------------------|
e|-------------------------------------------------------------------|

# intro ( 2 x )
# versos ( 4 x )
# refrão ( 2 x )
# solo
# refrão ( 2 x )
# solo ( final )

WWW.SCHBAND.HPG.COM.BR
Comments