Suicidal Chicken Head - Nao Chores Mais Chords & Tabs

 

Nao Chores Mais Chords & Tabs

Suicidal Chicken Head Chords & Tabs

Version: 1 Type: Bass Tab 0 ratings
1 star 2 stars 3 stars 4 stars 5 stars
comments

Nao Chores Mais Bass Tab

Tabbed By : Maggi
e-mail: schband@uol.com.br
site: www.schband.kit.net

Nao Chores Mais

Tuning: Standart

InTro

G|---------------------------------------------------------------------------|
D|---------------------------------------------------------------------------|
A|---3----5----2----3----3----8----7----5---3--------------------------------|
E|---------------------------------------------------------------------------|

Verse

G|---------------------------------------------------------------------------|
D|-----2--3--5--3--2-------------------------------------------2--3--5--3--2-|
A|--3--------------------2--3--5--3--2------0--1--3--1--0---3----------------|
E|---------------------3-----------------1-----------------------------------|

Pre Chorus
[ Tab from: http://www.guitartabs.cc/tabs/s/suicidal_chicken_head/nao_chores_mais_btab.html ]
G|---------------------------------------------------------------------------|
D|---------------------------------------------------------------------------|
A|---3-3-3-3-3---------------------------------------------------------------|
E|---------------3-3-3-3-3---5-5-5-5-5---1-1-1-1-1---------------------------|

Chorus

G|---------------------------------------------------------------------------|
D|---------------------------------------------------------------------------|
A|---3-3-3-3-3---------------------------------------------------------------|
E|---------------3-3-3-3-3---5-5-5-5-5---1-1-1-1-1---------------------------|

Bridge

G|---------------------------------------------------------------------------|
D|-----------2--2--5--5--5--5--5--7--7--5--5--5--3--3--3--3--3---------------|
A|----3--3-------------------------------------------------------------------|
E|---------------------------------------------------------------------------|
Comments