Suicidal Chicken Head - Desde A Primeira Vez Chords & Tabs

 

Desde A Primeira Vez Chords & Tabs

Suicidal Chicken Head Chords & Tabs

Version: 2 Type: Tab 0 ratings
1 star 2 stars 3 stars 4 stars 5 stars
comments

Desde A Primeira Vez Tab

Suicidal Chicken Head
Desde A Primeira Vez

Intro
e|---------------------------------|   2X
b|---------------------------------|
g|--9-9-9---------9-9-9------------|
d|--9-9-9--7-7-7--9-9-9---9-9-9----|
a|--7-7-7--7-7-7--7-7-7---9-9-9----|
e|---------5-5-5----------7-7-7----|

Verse - Palm Mute - 4x
e|----------------------------------------------|
b|----------------------------------------------|
g|--999999999------------99999999---------------|
d|--999999999--77777777--99999999--99999999-----|
a|--777777777--77777777--77777777--99999999-----|
e|-------------55555555------------77777777-----|
[ Tab from: http://www.guitartabs.cc/tabs/s/suicidal_chicken_head/desde_a_primeira_vez_tab_ver_2.html ]
e|------------------------|
b|------------------------|
g|-9---14---9---16-14-13--|
d|------------------------|
a|-7---12---7---14-12-11--|
e|------------------------|

e|---------------------| 2x
b|---------------------|
g|-------9-------------|
d|--7----9----9---9----|
a|--7----7----9---9----|
e|--5---------7---7----|

Chorus - 4x
e|---------------------|
b|---------------------|
g|---------------------|
d|--11---9----7----7---|
a|--11---9----7----7---|
e|--9----7----5----5---|

Guitar 2
e|-------------|
b|-------------|
g|--9-9-9-9----|
d|-------------|
a|--7-7-7-7----|
e|-------------|

intro 2x
verse 4x

Chorus - 
e|------------------| 3x
b|------------------|
g|--6~~~~-----------|
d|------------------|
a|--4~~~~-----------|
e|------------------|

e|------------------| 1x
b|------------------|
g|--13--11--9--9----|
d|------------------|
a|--11---9--7--7----|
e|------------------|
Comments