Sugarfree - Telepono Chords & Tabs

 

Telepono Chords & Tabs

Sugarfree Chords & Tabs

Version: 2 Type: Tab 0 ratings
1 star 2 stars 3 stars 4 stars 5 stars
comments

Telepono Tab

   
intro:.....

 
[ Tab from: http://www.guitartabs.cc/tabs/s/sugarfree/telepono_tab_ver_2.html ]
E|---------------------------------------------------------------------------|
B|---------------------------------------------------------------------------|
G|---------------------------------------------------------------------------|
D|---13-13-13-11-11-11-9-9-9-7-7-7-6-7-6-7-9-9-9-11-11-11-6-6-6-7-7-9--9-9---|
A|---0--0--0--0--0--0--0-0-0-0-0-0-0-0-0-0-0-0-0-0--0--0--0-0-0-0-0-0--0-0---|
E|---------------------------------------------------------------------------|
 
E|-----------------------------------| 
B|-----------------------------------| 
G|-----------------------------------| 
D|-----------------------------------| 
A|---9-9-9-7-7-7-6-6-6-4-4-4-2-2-2---|
E|---0-0-0-0-0-0-0-0-0-0-0-0-0-0-0---|
 
E|------------------------------------------------------------------------------|
B|------------------------------------------------------------------------------|
G|------------------------------------------------------------------------------|
D|---13-13-13-14-14-14-11-11-11-13-13-13-9-9-11---------------------------------|
A|---0--0?-0--0--0--0--0--0--0--0--0--0--0-0-0--9-9-9-7-7-7-6-6-6-4-4-4-2-2-2---|
E|----------------------------------------------0-0-0-0-0-0-0-0-0-0-0-0-0-0-0---|
 
Verse: (Strumming not shown)
 
E|----------0------------(0)----------------------|
B|----------0------------(0)----------------------|
G|----------2-------------9---------(Repeat 2x)---|
D|----------2-------------9-----------------------|
A|----------0-------------7-----------------------|
E|-----------------------(0)----------------------|
    Alam mo ba...       kanina pa ako
    magdamag...         nakatingin sa?yo
 
E|-----------------------------------------------| 
B|-------9-9-9----------------9-9-9--------------| 
G|-------9-9-9----------------9-9-9--------------| 
D|-------7-7-7----------------9-9-9--------------| 
A|-------0-0-0----------------7-7-7--------------|
E|-----------------------------------------------|
  di mo lang alam          sa gitna ng kadiliman
  di mapakali              ako?y nabighani
 
E|-------0-0-0----------------0-0-0--------|-----------------| 
B|-------0-0-0----------------0-0-0--------|------3-3-3------| 
G|-------2-2-2----------------1-1-1--------|------2-2-2------| 
D|-------2-2-2----------------2-2-2--------|------0-0-0------| 
A|-------0-0-0----------------2-2-2--------|-----------------| 
E|----------------------------0-0-0--------|-----------------| 
  di mo lang alam         inaasam           huling pagkakataon
           ang               panahong
  makapiling ka                 sa una?t
 
Chorus:
 
E|---------0----------------0-------------------------------------|
B|---------0----------------0-------------------------------------|
G|---------2----------------1-------------------------------------|
D|---------2----------------2-------------------------------------|
A|---------0----------------2-------------------------------------|
E|--------------------------0-------------------------------------|
    Dahil dito         sa mariposa
    Ay mahirap ang     nag-iisa
    Oh yah dito        sa mariposa
    Ako lang yata      nag-iisa
 
Repeat Intro and Verse
Repeat Chorus
 
Bridge:
 
E|-----0-0-0-0-0-0-0-0-----|
B|-----0-0-0-0-0-0-0-0-----|
G|-----1-1-1-1-1-1-1-1-----|
D|-----2-2-2-2-2-2-2-2-----|
A|-----2-2-2-2-2-2-2-2-----|
E|-----0-0-0-0-0-0-0-0-----|
 
Repeat Chorus
 
End on:
 
E|----0-0---0-0---0-0---0-0----|
B|----0-0---0-0---0-0---0-0----|
G|----1-1---1-1---1-1---1-1----|
D|----2-2---2-2---2-2---2-2----|
A|----2-2---2-2---2-2---2-2----|
E|----0-0---0-0---0-0---0-0----|
 
yan chords nyan ay,verse: dm c#m bm am7 bm c#m dm
                   bridge: g f#m 2x e fm g#m am
yan po
francis caballero from bsu bit 1-l
enjoy \m/
Comments