Sugarfree - Tao Chords & Tabs

 

Tao Chords & Tabs

Sugarfree Chords & Tabs

Version: 1 Type: Tab 0 ratings
1 star 2 stars 3 stars 4 stars 5 stars
comments

Tao Tab

   
artist: sugar free
tabbed by:aries naceno
standard tunning

itong part na to bago mag second verse!!!

e--------------------------------------------|
b--------------------------10----------------|
g-----------9--12---9------------------------|
d---9--11--------------11--------------------|
a--------------------------------------------|
e--------------------------------------------|

e--------------------------------------------|
b--------------------------------------------|
g-----------9--12---9-------9----------------|
d---9--11--------------11--------------------|
a--------------------------------------------|
e--------------------------------------------|
[ Tab from: http://www.guitartabs.cc/tabs/s/sugarfree/tao_tab.html ]
e--------------------------------------------|
b--------------------------10----------------|
g-----------9--12---9------------------------|
d---9--11--------------11--------------------|
a--------------------------------------------|
e--------------------------------------------|

e--------------------------------------------|
b--------------------------12~---------------|
g-----------9--12---9------------------------|
d---9--11--------------11--------------------|
a--------------------------------------------|
e--------------------------------------------|

intro:
b- babad lng tapos
b-a-g#-g
verse:
b-g#-g
Prechorus:
g#-g 2X tapos Bb
chorus:
b-g#-g-f#

un lng pakinggan nyo na lng para malaman nyo ung mga pasok!!
binabati ko nga pla ang aking mga ka banda!! Pick-up
sina errol,ay2x,ken,at ube!! pati pla c tikboy at si jean din!!
un lng! pra sa mga sugar free lover to!! \m/
Comments