Sugarfree - Prom Chords & Tabs

 

Prom Chords & Tabs

Sugarfree Chords & Tabs

Version: 2 Type: Chords 0 ratings
1 star 2 stars 3 stars 4 stars 5 stars
comments

Prom Chords

   
Song: Prom
Artist: Sugarfree
Album: Dramachine
Tabber: bonyang26

Standard Tuning

Yung sa intro:

D-DM7-D G A-Asus-A
Timingan niyo na lang.. ^_^


Verse:
1st(bass lng sa part na toh)
2nd(power chords)

e|------------------|
B|------------------|
G|------------------|
D|------------------|
A|------------------|
E|--2--3--5---------|

F#m       G         A
Nanginginig na mga kamay...(Nalalasing sa yong tingin)

----------------------------------

Power Chords F#m G A (palm mute)

e|------------------|
B|------------------|
G|------------------|
D|-4--5--7----------|
A|-4--5--7----------|
E|-2--3--5----------|

F#m       G         A
Pwede ba kitang tabihan...(Habang lumalalim ang gabi...)

-----------------------------------

e|------------------------------|
B|------------------------------|
G|---------9--9~11~9~11~9-------|
D|--9---7--9--9~11~9~11~9-------|
A|--9---7--7--7~9~~7~9~~7-------|
E|--7---5-----------------------|

 Bm         A             Em    Em-F#m-Em-F#m-Em
Ito na ang gabing di malilimutan...

-----------------------------------
    
e|----------------------------|
B|----------------------------|
G|--------9--7--9--11-12------|
D|--9--7--9--7--9--11-12------|
A|--9--7--7--5--7--9--10------|
E|--7--5----------------------|

 Bm         A           Em  D-Em-F#m-G
Dahan-dahan tayong nagtinginan...(Tayo'y naglakad ng dahan-dahan...)

-----------------------------------

NOTE UKOL SA VERSE 2:

Sa part na "Habang lumalalim..."

e|--------------------|
B|---3-----3----3-----|
G|--------------------|
D|-4-----5----7-------|
A|-4-----5----7-------|
E|-2-----3----5-------|
Repeat twice pero wala na ung huling 3, pakinggan niyo na lang.

Ganun pa din siya.. [F#m G A], nilagyan lang nung '3'. Pakinggan niyo na lang. ^_^

---------------------------------

Chorus:
    
e|------------------------|
B|------------------------|
G|--7--9--11--12----------|
D|--7--9--11--12----------|
A|--5--7--9---10----------|
E|------------------------|
[ Tab from: http://www.guitartabs.cc/tabs/s/sugarfree/prom_crd_ver_2.html ]
D             Em
Parang atin ang gabi
F#m           G
Para bang wala tayong katabi
D             Em
At tayo'y sumayaw
F#m           G
Na parang hindi na tayo 
D       Em       F#m     G
Bibitaw

Dun sa papunta sa second verse, ito yung gagawin
e|---------------------|
B|---------------------|
G|-7--9--5-------------|
D|-7--9--5-------------|
A|-5--7--3-------------|
E|---------------------|

D   Em   Cm
Bibitaw...

----------------------------------

Bridge:

Em                  F
Matapos man ang sayaw...
                   Em       F      G
Pangakong di ka bibitaw.. Aaw...

---------------------------------

Last Chorus:
Sa part na toh, pinaglalaruan na ni Ebe ung chords...(slide as necessary)

part1: ito ung matatapos na ung chorus, sa may part na "bibitaw..."

e|-----------------------|
B|-----------------------|
G|--7-6-7-9-7------------|
D|--x-x-x-x-x--(4x)------|
A|--5-4-5-7-5------------|
E|-----------------------|

part2: wla ng lyrics sa part na toh..  pakinggan nyo muna mabuti.. :P
e|---------------------------------------|
B|---------------------------------------|
G|--7-9-7-6-11--12----7-12-11-9-7--------|
D|--x-x-x-x-x---x-----x-x--x--x-x--------|
A|--5-7-5-4-9---10----5-10-9--7-5--------|
E|---------------------------------------|

part3: ito na ung papunta sa ending!

e|---------------------------------------------------------------|
B|---------------------------------------------------------------|
G|--6-7-6-7-7-9----6-7-6-7-7-9-7---------7-6-7-------------------|
D|--6-7-6-7-7-9----6-7-6-7-7-9-7-(break)-7-6-7-(break!)----------|
A|--4-5-4-5-5-7----4-5-4-5-5-7-5---------5-4-5-------------------|
E|---------------------------------------------------------------|



*note: kung gusto nyo, pwede nyo ring buhayin ung deadstring.. or pwede
niyo ring patayin yung 'D' string jan sa last part. Kayu na ang bahala.


comments? suggestions? violent reactions? :D
u can contact me through my e-add... bonyang26@yahoo.com
PM/IM nyo nlng me.. ahehehehe... hi nga pla sa mga katropa koh sa cdbs!
pati sa lahat ng mga taga San Pedro Laguna! :P
Pati sa mga ComSci Majors sa UPDiliman!
Comments