Sugarfree - Kwarto Chords & Tabs

 

Kwarto Chords & Tabs

Sugarfree Chords & Tabs

Version: 3 Type: Bass Tab 0 ratings
1 star 2 stars 3 stars 4 stars 5 stars
comments

Kwarto Bass Tab

SONG TITLE : kWaRtO
BAND : sUgArFrEe
ALBUM : dRaMaChInE
TABBED BY : jUlJul (chupuclues@yahoo.com) if u have corrections

Hi sa mga taga BSU-LHS! nyahaha!! 

PLEASE RATE IT.

RIFF 1:
*for verses*
G|---------------------|
D|---------------------|  
A|---------------------| / - slide up
E|--0----5-----5/10\\2--| \\ - slide down

RIFF 2:
*for pre-chorus*
G|----------------------|
D|----------------------|
A|----------------------|
E|--5-5-5-5---55555555--|
[ Tab from: http://www.guitartabs.cc/tabs/s/sugarfree/kwarto_btab_ver_3.html ]
RIFF 3:
*for chorus*
G|-------------------------------------------------------|
D|-------------------------------------------------------|
A|-55555555--77777777--44444444--55555555--*22222222--/5-|
E|-------------------------------------------------------|
* - 16 times
RIFF 4:
*post-chorus*
G|------------------|
D|------------------|do this right after the chorus
A|--8-7----5--------|then riff 1
E|------------------|
RIFF 5: 
*for the 2nd chorus*
G|-------------------------------------------------------------|
D|-------------------------------------------------------------|
A|-55555555--77777777--44444444--55555555--*22222222--/5555555-|
E|-------------------------------------------------------------|
* - 16 times
*after the \"mula ngayon!!!!!!\" pause muna (acoustic muna dun)
tapos pasok na sa adlib
AD-LIB:
G|------------------------------------------------------
D|--------------------------------------------10/12-----
A|-------------------------10-8v--pause—9h10—-----------
E|----9-9-/5-/7h9----9h10-------------------------------

-----------------------------------------------------------------
-----------------------------------------------------------------
-11-12-11-12-11---7-7------------------/11--9-7------------------
------------------------9-7-9-7-9-7-5------------11-9-11-9-11-9—

------------|
------------| h – hammer-on , v – vibrato 
-/11--9-7v--|
------------|

RIFF 6:
*for the outro*
G|----------------------|
D|----------------------|
A|----------------------|
E|--5---------/10~------|

AGAIN,......PLEASE RATE IT...


Comments