Sugarfree - Kwarto Chords & Tabs

 

Kwarto Chords & Tabs

Sugarfree Chords & Tabs

Version: 1 Type: Bass Tab 0 ratings
1 star 2 stars 3 stars 4 stars 5 stars
comments

Kwarto Bass Tab

O ayan tama na 'to for bass guitar! paki-rate na lang please.


G--------------------------18--19-19-19-18-18-16-14--|
D-------18-18-16--14h16h18---------------------------|
A-14/16----------------------------------------------|
E----------------------------------------------------|
[ Tab from: http://www.guitartabs.cc/tabs/s/sugarfree/kwarto_btab.html ]
G----------------------14/18-16-14-|
D----------------------------------|
A-16-14h16-14-16-14-12-------------|
E----------------------------------|

G----------------------14/18-16-14----|
D-18-16h18-16-18-16-14----------------|
A-------------------------------------|
E-------------------------------------|

Thanks to my mom and dad and brother and sister and dog and to God and to
everybody in the world!!!!
Comments