Sugarfree - Hari Ng Sablay Chords & Tabs

 

Hari Ng Sablay Chords & Tabs

Sugarfree Chords & Tabs

Version: 1 Type: Tab 0 ratings
1 star 2 stars 3 stars 4 stars 5 stars
comments

Hari Ng Sablay Tab

   
Song: Hari ng Sablay
Artist: SugarFree
Standard Tuning

Intro:
   D    C   D    G    D    G   D  G
---0--3333--0--3333---0--3333--0--3-----|
---3--3333--3--3333---3--3333--3--3-----|
---2--0000--2--0000---2--0000--2--0-----|
------2222-----0000------2222-----0-----|
------3333-----2222------3333-----2-----|
---------------3333---------------3-----|
   D    C   D    G    D    G   D    G
---0--3333--0--3333---0--3333--0--3333-----|
---3--3333--3--3333---3--3333--3--3333-----|
---2--0000--2--0000---2--0000--2--0000-----|	2x
------2222-----0000------2222-----0000-----|
------3333-----2222------3333-----2222-----|
---------------3333---------------3333-----|

verse:
  pls. Lang wag kang magulat...
--3333--0--3333--0--3333--0--3333-------|
--3333--3--3333--3--3333--3-3333-------|
--0000--2--0000--2--0000--2--0000-------|
--2222-----0000-----2222-----0000-------|
--3333-----2222-----3333-----2222-------|
-----------3333--------------3333-------|

      mula pa nung pagkabata...
---0--3333--0--3333---0--3333--0--3333-----|
---3--3333--3--3333---3--3333--3--3333-----|
---2--0000--2--0000---2--0000--2--0000-----|
------2222-----0000------2222-----0000-----|
------3333-----2222------3333-----2222-----|
---------------3333---------------3333-----|

	san san nadadapa...
---0--3333--0--3333---0--3333--0--3333-----|
---3--3333--3--3333---3--3333--3--3333-----|
---2--0000--2--0000---2--0000--2--0000-----|
------2222-----0000------2222-----0000-----|
------3333-----2222------3333-----2222-----|
---------------3333---------------3333-----|


	ang puso kong kawawa...
---0--3333--0--3333---0--3333--0--3333-----|
---3--3333--3--3333---3--3333--3--3333-----|
---2--0000--2--0000---2--0000--2--0000-----|
------2222-----0000------2222-----0000-----|
------3333-----2222------3333-----2222-----|
---------------3333---------------3333-----|

refrain:
ooh, ayoko nang magsori...
     Em       C
--3333333--3333333----|
--3333333--3333333----|
--0000000--0000000----|
--2222222--2222222----|	2x
--2222222--3333333----|
----------------------|
pasensya ka na...
     Am      C      D
--3333333--3333--333333------|
--3333333--3333--333333------|
--2222222--0000--222222------|
--2222222--2222--------------|
-----------3333--------------|
-----------------------------|
[ Tab from: http://www.guitartabs.cc/tabs/s/sugarfree/hari_ng_sablay_tab.html ]
Chorus:
	G	    C		  Em	   C		D
--33333333--33333333--33333333--3333--333333--|	(dito sa 1st chorus,
--33333333--33333333--33333333--3333--333333--|	strum d chords once
--00000000--00000000--00000000--0000--222222--|	pwera yng D)
--00000000--22222222--22222222--2222----------|
--22222222--33333333--22222222--3333----------|
--33333333------------------------------------|
	G	    C		Am	   C		D
--33333333--33333333--33333333--3333--333333--|
--33333333--33333333--33333333--3333--333333--|
--00000000--00000000--22222222--0000--222222--|	(mas mahaba ng konti
--00000000--22222222--22222222--2222----------|	yng D, kasi papasok sa
--22222222--33333333------------3333----------|	nxt verse)
--33333333------------------------------------|

repeat verse
repeat refrain
repeat chorus

instrumental:

---0--3333--0--3333---0--3333--0--3333-----|
---3--3333--3--3333---3--3333--3--3333-----|
---2--0000--2--0000---2--0000--2--0000-----|	2x
------2222-----0000------2222-----0000-----|
------3333-----2222------3333-----2222-----|
---------------3333---------------3333-----|

ohhhoho... may palakpak
C        G
--3333333--3333333--            --33333333------|
--3333333--3333333--            --33333333------|
--0000000--0000000--    2x then    --22222222---|
--2222222--0000000--            --00000000------|
--3333333--2222222--            --xxxxxxxx------|
-----------3333333--            --xxxxxxxx------|

refrain 2:

ohh... ayoko ng magsori...

	Em    C
--3333333--3333-----------------|
--3333333--3333-----------------|
--0000000--0000-----------------|
--2222222--2222-----------------|
--2222222--3333---3--2--0--0-0--|
--------------------------------|
ohh... sawa na kong magsisi...
--3333333--3333333----|
--3333333--3333333----|
--0000000--0000000----|
--2222222--2222222----|
--2222222--3333333----|
----------------------|
pasensya ka na...
	Am    C       D
--3333333--3333--333333------|
--3333333--3333--333333------|
--2222222--0000--222222------|
--2222222--2222--------------|
-----------3333--------------|
-----------------------------|

repeat chorus (huli ng konti gitara, tigil kc konti si Ebe, alm nyo na yon)

outro: may effects na sya, flanger or what...

---0--3333--0--3333---0--3333--0--3333-----|
---3--3333--3--3333---3--3333--3--3333-----|
---2--0000--2--0000---2--0000--2--0000-----|
------2222-----0000------2222-----0000-----|
------3333-----2222------3333-----2222-----|
---------------3333---------------3333-----|

---0--3333--0--3333---0--3333--0--3~~~--|
---3--3333--3--3333---3--3333--3--3~~~--|
---2--0000--2--0000---2--0000--2--0~~~--|
------2222-----0000------2222-----0~~~--|
------3333-----2222------3333-----2~~~--|
---------------3333---------------3~~~--|


note: may chords na akong nakita d2 sa ultimate guitar tabs, gnwan klng ng tab para
mas detailed, kung pano I-position daliri, kc iba na Em,C,Am at D ang gnmit ni ebe,
medyo iba rin 2nog nun. Yung strumming, hindi ganyan karami tlga yung pag-strum nyan,
timingan nyo nlang,di ko mabilang eh. yung D, pwede nyo gwin yung normal na D, o yung

ganito:

--3--            --0-----|
--3--        or    --3---|
--2--            --2----|
para sa akin to, sablay kc ako.!

Para rin kina alex,lester,keith,jino,kat,krishelle,ian,cj,hannah. Sa mga kaibigan ko
sa PLM. Sa mga kaibigan ko rin sa Crest View Academy, at mga kabanda ko. Kilala nyo
na kung sino ako, kht di k nllgay name k.

Salamat.
Comments