Sugarfree - Cuida Chords & Tabs

 

Cuida Chords & Tabs

Sugarfree Chords & Tabs

Version: 1 Type: Tab

Cuida Tab

|---------------|-----------|-2-3s5-7-7-5--2-2-3-2-----|
|-2-3--3s7-5-5--|-2-3-0-----|----------------------0---|
|---------------|-------2-2-|--------------------------|
|---------------|-----------|--------------------------|
|---------------|-----------|--------------------------|
|---------------|-----------|--------------------------|

|--------------1s2--5-5-6-5--7s8-7-------------------|
|-0-0--2-3-2-----------------------------------------|
|------------2---------------------------------------|
|----------------------------------------------------|
|----------------------------------------------------|
|----------------------------------------------------|

[ Tab from: http://www.guitartabs.cc/tabs/s/sugarfree/cuida_tab.html ]