Sugarfree - Burnout Chords & Tabs

 

Burnout Chords & Tabs

Sugarfree Chords & Tabs

Version: 1 Type: Tab 0 ratings
1 star 2 stars 3 stars 4 stars 5 stars
comments

Burnout Tab

   
Song: Burnout
Artist: Sugar Free
Album: Sa Wakas
Tabbed by: Princesa Avedy, meetdy@yahoo.com

Intro: G-C-(2x) or

Intro & Verse chords
e-------|-------|
B---7---|---5---|
G---7---|---5---|
D---5---|---5---|
A-------|-------|
E-------|-------|


1st Verse
G-C
O wag kang tumingin 
G-C
Ng ganyan sa akin
Bm-C
Wag mo akong kulitin
Bm-C
Wag mo akong tanungin

G-C-(2x)

2nd Verse
G-C
Dahil katulad mo 
G-C
Ako rin ay nagbago
Bm-C
Di na tayo tulad ng dati
Bm-C
Kay bilis ng sandali

    e--3--|
    B--3--|
    G--0--|
    D--0--|
    A--0--|
    E--2--|

Chorus:

    e--3--|--3--|--3--|
    B--3--|--3--|--3--|
    G--0--|--0--|--0--|   (2x)
    D--2--|--0--|--2--|
    A--0--|--2--|--3--|
    E--x--|--3--|--x--|

   O kay tagal din kitang minahal
   O kay tagal din kitang minahal

3rd Verse: 
G-C
Kung iisipin mo
G-C
Di naman dati ganito
Bm-C
Teka muna teka lang
Bm-C----
Kelan tayo nailang?
G-C                  
Kung iisipin mo
G-C
Di naman dati ganito
Bm-C
Kay bilis kasi ng buhay
Bm-C
Pati tayo natangay
[ Tab from: http://www.guitartabs.cc/tabs/s/sugarfree/burnout_tab.html ]
    e--3--|
    B--3--|
    G--0--|
    D--0--|
    A--0--|
    E--2--|

Chorus:

    e--3--|--3--|--3--|
    B--3--|--3--|--3--|
    G--0--|--0--|--0--|   (2x)
    D--2--|--0--|--2--|
    A--0--|--2--|--3--|
    E--x--|--3--|--x--|

   O kay tagal din kitang minahal
   O kay tagal din kitang minahal

I.  
     e--3--|--3--|
     B--3--|--3--|
     G--0--|--0--|   (2x)
     D--0--|--2--|
     A--0--|--3--|
     E--2--|--x--|
  wooohooo...woooohoooo...

    e--3--|--3--|--3--|--2--|
    B--3--|--3--|--3--|--3--|
    G--0--|--0--|--2--|--2--| 
    D--0--|--2--|--x--|--x--|
    A--0--|--3--|--x--|--x--|
    E--2--|--x--|--x--|--x--|

(drum solo)

    e--3--|--2--|--0--|--2--|
    B--3--|--3--|--3--|--3--|
    G--0--|--0--|--0--|--0--| 
    D--x--|--x--|--x--|--x--|
    A--x--|--x--|--x--|--x--|
    E--x--|--x--|--x--|--x--|



(drums lang)
Tinatawag kita sinusuyo kita

    			*e--3--|--3--|
    			 B--3--|--3--|
    			 G--0--|--0--| 
    			 D--0--|--2--|
    			 A--0--|--3--|
    			 E--2--|--x--|
Di mo man marinig, di mo *man madama

    e--3--|--3--|--3--|
    B--3--|--3--|--3--|
    G--0--|--0--|--0--|   (2x)
    D--2--|--0--|--2--|
    A--0--|--2--|--3--|
    E--x--|--3--|--x--|
O kay tagal din kitang mamahlin
O kay tagal din kitang mamahalin
Oh mamahalin, mamahalin.....

outro: (listen to Burnout for this part)

    e--3--|
    B--3--|
    G--0--|   (2x)
    D--2--|
    A--3--|
    E--x--|

 Em~
Comments