Sugarcult - Worst December Chords & Tabs

 

Worst December Chords & Tabs

Sugarcult Chords & Tabs

Version: 1 Type: Tab 0 ratings
1 star 2 stars 3 stars 4 stars 5 stars
comments

Worst December Tab

Sugarcult
Worst December

Tabbed By: Jeff Kingsbury (valueshere@hotmail.com)

PLEASE DO NOT REPLICATE THIS TAB WITHOUT EXPRESS PERMISSION FROM OWNER.



Intro
Guitar I
e|---------------------------------------------------------------------------|
B|---------------------------------------------------------------------------|
G|--6--6--8--8--11-11-6--6--8--8--11-11-6--6--8--8---------------------------|
D|--x--x--x--x--x--x--x--x--x--x--x--x--x--x--x--x---------------------------|-----
A|--4--4--6--6--9--9--4--4--6--6--9--9--4--4--6--6---------------------------|     |
E|---------------------------------------------------------------------------|     |
                                                                                   |___ X2
e|---------------------------------------------------------------------------|     |
B|---------------------------------------------------------------------------|     |
G|--11-11-11-9--9--9--9--9--8--8--8--6--6--6--6--6---------------------------|     |
D|--x--x--x--x--x--x--x--x--x--x--x--x--x--x--x--x---------------------------|-----
A|--9--9--9--7--7--7--7--7--6--6--6--4--4--4--4--4---------------------------|
E|---------------------------------------------------------------------------|

Guitar II (Backing Chords)
e|---------------------------------------------------------------------------|
B|---------------------------------------------------------------------------|
G|----------------------------------4-4-4-4-4-4-4-4-6-6-6-6-6-6-6-6----------|
D|--6-6-6-6-6-6-6-6-6-6-6-6-6-6-6-6-4-4-4-4-4-4-4-4-6-6-6-6-6-6-6-6----------| X2
A|--6-6-6-6-6-6-6-6-6-6-6-6-6-6-6-6-2-2-2-2-2-2-2-2-4-4-4-4-4-4-4-4----------|
E|--4-4-4-4-4-4-4-4-4-4-4-4-4-4-4-4------------------------------------------|

Verse I- Part I
e|---------------------------------------------------------------------------|
B|--7--7-7-7-7-7-7-7-7-7-7-7-7-7-7-5-5-5-5-5-5-5-5-7-7-7-7-7-7-7-7-----------|
G|--6--6-6-6-6-6-6-6-6-6-6-6-6-6-6-4-4-4-4-4-4-4-4-6-6-6-6-6-6-6-6-----------| 
D|--4--4-4-4-4-4-4-4-4-4-4-4-4-4-4-2-2-2-2-2-2-2-2-4-4-4-4-4-4-4-4-----------| X2
A|---------------------------------2-2-2-2-2-2-2-2-4-4-4-4-4-4-4-4-----------|
E|---------------------------------------------------------------------------|

Verse I- Part II
Guitar I
e|---------------------------------------------------------------------------|
B|--4-4-4-4-4-4-4-4-4-4-4-4-4-4-4-4-7-7-7-7-7-7-7-7-7-7-7-7-7-7-7-7----------|
G|--3-3-3-3-3-3-3-3-3-3-3-3-3-3-3-3-6-6-6-6-6-6-6-6-6-6-6-6-6-6-6-6----------|
D|--1-1-1-1-1-1-1-1-1-1-1-1-1-1-1-1-4-4-4-4-4-4-4-4-4-4-4-4-4-4-4-4----------| X2
A|--1-1-1-1-1-1-1-1-1-1-1-1-1-1-1-1-4-4-4-4-4-4-4-4-4-4-4-4-4-4-4-4----------|
E|---------------------------------------------------------------------------|

Guitar I
e|--7---7---7---7---7---7---7---7---9---9---9---9---9---9---9---9------------|
B|----7---7---7---7---7---7---7---7---7---7---7---7---7---7---7---7----------|
G|---------------------------------------------------------------------------|
D|---------------------------------------------------------------------------| X2
A|---------------------------------------------------------------------------|
E|---------------------------------------------------------------------------|

Chorus I- Part I
e|---------------------------------------------------------------------------|
B|---------------------------------------------------------------------------|
G|--4--4-4-4-4-4-4-4-4-4-4-4-4-4-4-------------------------------------------|
D|--4--4-4-4-4-4-4-4-4-4-4-4-4-4-4-2-2-2-2-2-2-2-2-2-2-2-2-2-2-2-2-----------| X2
A|--2--2-2-2-2-2-2-2-2-2-2-2-2-2-2-2-2-2-2-2-2-2-2-2-2-2-2-2-2-2-2-----------|
E|---------------------------------0-0-0-0-0-0-0-0-0-0-0-0-0-0-0-0-----------|


Chorus I- Part II
e|---------------------------------------------------------------------------|
B|---------------------------------------------------------------------------|
G|---------------------------------------------------------------------------|
D|--6-6-6-6-6-6-6-6-6-6-6-6-6-6-6-6-2-2-2-2-2-2-2-2-4-4-4-4-4-4-4-4----------|
A|--6-6-6-6-6-6-6-6-6-6-6-6-6-6-6-6-2-2-2-2-2-2-2-2-4-4-4-4-4-4-4-4----------|
E|--4-4-4-4-4-4-4-4-4-4-4-4-4-4-4-4-0-0-0-0-0-0-0-0-2-2-2-2-2-2-2-2----------|

Chorus End
e|---------------------------------------------------------------------------|
B|---------------------------------------------------------------------------|
G|---------------------------------------------------------------------------|
D|--6-6-6-6-6-6-6-6-6-6-6-6-6-6-6--------------------------------------------|
A|--6-6-6-6-6-6-6-6-6-6-6-6-6-6-6--------------------------------------------|
E|--4-4-4-4-4-4-4-4-4-4-4-4-4-4-4--------------------------------------------|


Pre-Verse (same as intro)
Guitar I
e|---------------------------------------------------------------------------|
B|---------------------------------------------------------------------------|
G|--6--6--8--8--11-11-6--6--8--8--11-11-6--6--8--8---------------------------|
D|--x--x--x--x--x--x--x--x--x--x--x--x--x--x--x--x---------------------------|
A|--4--4--6--6--9--9--4--4--6--6--9--9--4--4--6--6---------------------------|
E|---------------------------------------------------------------------------|

e|---------------------------------------------------------------------------| 
B|---------------------------------------------------------------------------|
G|--11-11-11-9--9--9--9--9--8--8--8--6--6--6--6--6---------------------------|
D|--x--x--x--x--x--x--x--x--x--x--x--x--x--x--x--x---------------------------|
A|--9--9--9--7--7--7--7--7--6--6--6--4--4--4--4--4---------------------------|
E|---------------------------------------------------------------------------|
[ Tab from: http://www.guitartabs.cc/tabs/s/sugarcult/worst_december_tab.html ]
Guitar II (Backing Chords)
e|---------------------------------------------------------------------------|
B|---------------------------------------------------------------------------|
G|----------------------------------4-4-4-4-4-4-4-4-6-6-6-6-6-6-6-6----------|
D|--6-6-6-6-6-6-6-6-6-6-6-6-6-6-6-6-4-4-4-4-4-4-4-4-6-6-6-6-6-6-6-6----------|
A|--6-6-6-6-6-6-6-6-6-6-6-6-6-6-6-6-2-2-2-2-2-2-2-2-4-4-4-4-4-4-4-4----------|
E|--4-4-4-4-4-4-4-4-4-4-4-4-4-4-4-4------------------------------------------|


Verse II- Part I
e|---------------------------------------------------------------------------|
B|--7--7-7-7-7-7-7-7-7-7-7-7-7-7-7-5-5-5-5-5-5-5-5-7-7-7-7-7-7-7-7-----------|
G|--6--6-6-6-6-6-6-6-6-6-6-6-6-6-6-4-4-4-4-4-4-4-4-6-6-6-6-6-6-6-6-----------| 
D|--4--4-4-4-4-4-4-4-4-4-4-4-4-4-4-2-2-2-2-2-2-2-2-4-4-4-4-4-4-4-4-----------| X2
A|---------------------------------2-2-2-2-2-2-2-2-4-4-4-4-4-4-4-4-----------|
E|---------------------------------------------------------------------------|

Verse II- Ending
e|---------------------------------------------------------------------------|
B|---------------------------------------------------------------------------|
G|--6-6-6-6-6-6-x-4--4-4-4-4-4-4-4-------------------------------------------|
D|--6-6-6-6-6-6-x-4--4-4-4-4-4-4-4-------------------------------------------|
A|--4-4-4-4-4-4-x-2--2-2-2-2-2-2-2-------------------------------------------|
E|---------------------------------------------------------------------------|


Chorus II- Part I
e|---------------------------------------------------------------------------|
B|---------------------------------------------------------------------------|
G|--4--4-4-4-4-4-4-4-4-4-4-4-4-4-4-------------------------------------------|
D|--4--4-4-4-4-4-4-4-4-4-4-4-4-4-4-2-2-2-2-2-2-2-2-2-2-2-2-2-2-2-2-----------| X2
A|--2--2-2-2-2-2-2-2-2-2-2-2-2-2-2-2-2-2-2-2-2-2-2-2-2-2-2-2-2-2-2-----------|
E|---------------------------------0-0-0-0-0-0-0-0-0-0-0-0-0-0-0-0-----------|


Chorus II- Part II
e|---------------------------------------------------------------------------|
B|---------------------------------------------------------------------------|
G|---------------------------------------------------------------------------|
D|--6-6-6-6-6-6-6-6-6-6-6-6-6-6-6-6-2-2-2-2-2-2-2-2-4-4-4-4-4-4-4-4----------|
A|--6-6-6-6-6-6-6-6-6-6-6-6-6-6-6-6-2-2-2-2-2-2-2-2-4-4-4-4-4-4-4-4----------|
E|--4-4-4-4-4-4-4-4-4-4-4-4-4-4-4-4-0-0-0-0-0-0-0-0-2-2-2-2-2-2-2-2----------|

Chorus II- Part III
GUitar I
e|---------------------------------------------------------------------------|
B|---------------------------------------------------------------------------|
G|--4-4-4-4-4-4-4-4-4-4-4-4--------------------------------------------------|
D|--4-4-4-4-4-4-4-4-4-4-4-4-4-4-4-2-2-2-2-2-2-2-2-2-2-2-2-2-2-2--------------| X2
A|--2-2-2-2-2-2-2-2-2-2-2-2-4-4-4-2-2-2-2-2-2-2-2-2-2-2-2-2-2-2--------------|
E|--------------------------2-2-2-0-0-0-0-0-0-0-0-0-0-0-0-0-0-0--------------|

Chorus II- Part III
GUitar II
e|----7-----7-----7-----7-----7-------9-----9-----9-----9-----9---9----------|
B|--7---7-7---7-7---7-7---7-7---7-7-7---7-7---7-7---7-7---7-7---7------------|
G|---------------------------------------------------------------------------|
D|---------------------------------------------------------------------------| X2
A|---------------------------------------------------------------------------|
E|---------------------------------------------------------------------------|

Bridge
e|---------------------------------------------------------------------------|
B|---------------------------------------------------------------------------|
G|---------------------------------x-9-9--9--9-x-------x-9-9--9--9-x---------|
D|--6--6-6-6-6-4--4-4-4-4-4-4--2-2-x-x-x--x--x-x-2-2-2-x-x-x--x--x-x---------|
A|--6--6-6-6-6-4--4-4-4-4-4-4--2-2-x-7-7--7--7-x-2-2-2-x-7-7--7--7-x---------|
E|--4--4-4-4-4-2--2-2-2-2-2-2--0-0---------------0-0-0-----------------------|


e|---------------------------------------------------------------------------|
B|---------------------------------------------------------------------------|
G|---------x-11-11-11-11-x-------x-11-11-11-11-11\---------------------------|
D|--2--4-4-x-11-11-11-11-x-4-4-4-x-11-11-11-11-11\---------------------------|
A|--2--4-4-x-9--9--9--9--x-4-4-4-x-9--9--9--9--9-\---------------------------|
E|--0--2-2-----------------2-2-2---------------------------------------------|

Breakdown
e|-----------------------------------4~---0~---2~---0----2----0----2---------|
B|--4~----4~----4~----4~---4---------4~---0~---2~---0----2----0----2---------|
G|--4~----4~----4~----4~------4------4~---4~---3~---4----3----4----3---------|
D|--4~----4~----4~----4~---------4---6~---2~---4~---2----4----2----4---------|
A|--2~----2~----2~----2~-------------6~---2~---4~---2----4----2----4---------|
E|-----------------------------------4~---0~---2~---0----2----0----2---------|

Chorus III
e|-------0-0-0-0-0-0-0-0-2-2-2-2-2-2-2-2-------------------------------------|
B|--4----0-0-0-0-0-0-0-0-2-2-2-2-2-2-2-2-------------------------------------|
G|--4----4-4-4-4-4-4-4-4-3-3-3-3-3-3-3-3-------------------------------------|
D|--4----2-2-2-2-2-2-2-2-4-4-4-4-4-4-4-4-------------------------------------|
A|--2----2-2-2-2-2-2-2-2-4-4-4-4-4-4-4-4-------------------------------------|
E|-------0-0-0-0-0-0-0-0-2-2-2-2-2-2-2-2-------------------------------------|

Outro- Part I
e|---------------------------------------------------------------------------|
B|---------------------------------------------------------------------------|
G|--4-4-4-4-4-4-4-4----------------------------------------------------------|
D|--4-4-4-4-4-4-4-4-2-2-2-2-2-2-2-2-4-4-4-4-4-4-4-4-4-4-4-4-4-4-4-4----------| X4
A|--2-2-2-2-2-2-2-2-2-2-2-2-2-2-2-2-4-4-4-4-4-4-4-4-4-4-4-4-4-4-4-4----------|
E|------------------0-0-0-0-0-0-0-0-2-2-2-2-2-2-2-2-2-2-2-2-2-2-2-2----------|

Outro- Part II (Fadeout)
e|---------------------------------------------------------------------------|
B|---------------------------------------------------------------------------|
G|--4~-----------------------------------------------------------------------|
D|--4~--------------2~-------------------------------------------------------|
A|--2~--------------2~-------------------------------------------------------|
E|------------------0~-------------------------------------------------------|
Comments