Sugarcult - What You Say Chords & Tabs

 

What You Say Chords & Tabs

Sugarcult Chords & Tabs

Version: 2 Type: Tab 0 ratings
1 star 2 stars 3 stars 4 stars 5 stars
comments

What You Say Tab

   
Standard E

Intro/Verse
e|---------------------|---------------------|----------------------|
B|---------------------|---------------------|----------------------|
G|---------6-6---x-----|---------6-6---x-----|-----------6-6---6-6--|
D|-3-x-----6-6---x-----|-3-x-----6-6---x-----|-3---x-----6-6---6-6--|
A|-3-x-----4-4---x-----|-3-x-----4-4---x-----|-3---x-----4-4---4-4--|
D|-3-x-----------------|-3-x-----------------|-3---x----------------|

e|-x-x-x-x-x-x-x-x-----|---------------------|----------------------|
B|-x-x-x-x-x-x-x-x-----|---------------------|----------------------|
G|-x-x-x-x-x-x-x-x-----|---------------------|----------------------|
D|-x-x-x-x-x-x-x-x-----|---------------------|----------------------|
A|-x-x-x-x-x-x-x-x-----|---------------------|----------------------|
D|-x-x-x-x-x-x-x-x-----|---------------------|----------------------|
[ Tab from: http://www.guitartabs.cc/tabs/s/sugarcult/what_you_say_tab_ver_2.html ]
Chorus
e||-----------------------|-----------------------||----------------------|
B||-----------------------|-----------------------||----------------------|
G||-*---------6-6---x-----|---------15-15---x---*-||-----------6-6---6-6--|
D||-*-3-x-----6-6---x-----|-3-x-----15-15---x-----||-3---x-----6-6---6-6--|
A||---3-x-----4-4---x-----|-3-x-----15-15---x---*-||-3---x-----4-4---4-4--|
D||---3-x-----------------|-3-x-------------------||-3---x----------------|

Fill near the end

e|--------------|
B|--------------|
G|-11-\6-\2-----|
D|--------------|
A|--------------|
E|--------------|

Outro

E|(10x)(10x)(10x)(10x)(10x)(10x)(10x)(10x)======||
B|(10x)(10x)(10x)(10x)(10x)(10x)(10x)(10x)======||
G|(10x)(10x)(10x)(10x)(10x)(10x)(10x)(10x)======||
D|(10x)(10x)(10x)(10x)(10x)(10x)(10x)(10x)======||
A|(10x)(10x)(10x)(10x)(10x)(10x)(10x)(10x)======||
E|(10x)(10x)(10x)(10x)(10x)(10x)(10x)(10x)======||
Comments