Sugarcult - Stuck In America Chords & Tabs

 

Stuck In America Chords & Tabs

Sugarcult Chords & Tabs

Version: 4 Type: Tab 0 ratings
1 star 2 stars 3 stars 4 stars 5 stars
comments

Stuck In America Tab

   
Title: Stuck in America
Album: Start Static

This song is tuned down a half step.
eb
Bb
Gb
Db
Ab
eb

-7---7---7--7-----------------------------------------------------------------
---7---7---7--7---------------------------------------------------------------
------------------------------------------------------------------------------
------------------------------------------------------------------------------
------------------------------------------------------------------------------
------------------------------------------------------------------------------
introduction

---------------------------------------|--------------------------------------
---------------------------------------|--------------------------------------
--4-------9---6----4-----9--6-------2x-|---4--------9--9--9--9----------------
--4---4---9---6----4--4--9--6----------|---4--4--4--9--9--9--9----4x----9-----
--2---4---7---4----2--4--7--4----------|---2--4--4--7--7--7--7----------------
------2---------------2----------------|------2--2----------------------------
"Today I changed..."

---------------------------------|--------------------------------------------
---------------------------------|--------------------------------------------
--4----------8------11-/13-------|--------------------------------------------
--4--4--4---------------------2x-|--------------------------------------------
--2--4--4----6------9-/11--------|--------------------------------------------
-----2--2------------------------|--------------------------------------------
2nd guitar at the part where there are no drums

----------------------------------------------------------------------------|-
----------------------------------------------------------------------------|-
-4-4-4-4-4-4-4-4-------------------------------------6-6-6-6-6-6-6-6--6/8---|-
-4-4-4-4-4-4-4-4---4-4-4-4-4-4-4-4--2-2-2-2-2-2-2-2--6-6-6-6-6-6-6-6---/--2x|-
-2-2-2-2-2-2-2-2---4-4-4-4-4-4-4-4--2-2-2-2-2-2-2-2--4-4-4-4-4-4-4-4--4/6---|-
-------------------2-2-2-2-2-2-2-2--0-0-0-0-0-0-0-0-------------------------|-
Verse 1

-------------------------------------------|----------------------------------
-------------------------------------------|----------------------------------
-4-4-4-4-----------6-6-6-6--9-9-9-9--------|-4-4-4-4--------------------------
-4-4-4-4--4-4-4-4--6-6-6-6--9-9-9-9-----3x-|-4-4-4-4-4-4-4-4-2-2-2-2-2-2-2-2--
-2-2-2-2--4-4-4-4--4-4-4-4--7-7-7-7--------|-2-2-2-2-4-4-4-4-2-2-2-2-2-2-2-2--
----------2-2-2-2--------------------------|---------2-2-2-2-0-0-0-0-0-0-0-0—

"Everybody's talking bout..." "Running just to get awaaaaaay.."


[ Tab from: http://www.guitartabs.cc/tabs/s/sugarcult/stuck_in_america_tab_ver_4.html ]
--------------------------------------------------------------------|---------
--------------------------------------------------------------------|---------
-4-4-4-4-4-4-4-----------------6-6-6-6-6-6-6------------------------|---------
-4-4-4-4-4-4-4-2-2-2-2-2-2-2-2-6-6-6-6-6-6-6-2-2-2-2-2-2-2-2-----2x-|---------
-2-2-2-2-2-2-2-2-2-2-2-2-2-2-2-4-4-4-4-4-4-4-2-2-2-2-2-2-2-2--------|---------
---------------0-0-0-0-0-0-0-0---------------0-0-0-0-0-0-0-0--------|---------
Chorus "Stuck in America..."

------------------------------------------------------------------------------
------------------------------------------------------------------------------
-4-4-4-4-4-4-4-----8--6--4--6-6-6-6-6-6-6--9--8--4--6-------------------------
-4-4-4-4-4-4-4--2-----------6-6-6-6-6-6-6-------------------------------------
-2-2-2-2-2-2-2--2--6--4--2--4-4-4-4-4-4-4--7--6--2--4-------------------------
----------------0-------------------------------------------------------------
Guitar 2 chorus

-2-----2-----2-----2----------|-----------------------------------------------
---4-----2-----4-----2--------|-----------------------------------------------
-----4-----4-----4-----4------|-----------------------------------------------
---------------------------4x-|-----------------------------------------------
------------------------------|-----------------------------------------------
------------------------------|-----------------------------------------------
Verse 2

------------------------------------------------------------------------------
--------------------------------------------8/11-/13--------------------------
-8-8-8p6h8p6-8-8-8-6--8-8-8p6h8p6-8-8-6------/---/----------------------------
----------------------------------------9---6/-9-/11--------------------------
------------------------------------------------------------------------------
------------------------------------------------------------------------------


------------------------------------------------------------------------------
----------------------------------12--12--------------------------------------
--9b11-9-8------9b11b9--11b13b11--11--11-9-8--8-9-11--11-9-8--9b11--11b13-----
-----------9-9----------------------------------------------------------------
------------------------------------------------------------------------------
------------------------------------------------------------------------------
Guitar Solo

------------------------------------------------------------------------------
------------------------------------------------------------------------------
-13b15--16-14----14h16--------------------------------------------------------
--------------16--------------------------------------------------------------
------------------------------------------------------------------------------
------------------------------------------------------------------------------
Comments