Sugarcult - Stuck In America Chords & Tabs

 

Stuck In America Chords & Tabs

Sugarcult Chords & Tabs

Version: 2 Type: Tab 0 ratings
1 star 2 stars 3 stars 4 stars 5 stars
comments

Stuck In America Tab

   
This is mainly just the main guitar part to the song

The intro is played:

E-----14------
B----------14
G--------------
D--------------
A--------------
E--------------

Alternating it

Then the main guitar plays:
[ Tab from: http://www.guitartabs.cc/tabs/s/sugarcult/stuck_in_america_tab_ver_2.html ]
E--------------------
B--------------------
G---4--------6---9--
D---4---4---6---9--
A---2---4---4---7--
E--------2-----------

Then just the main guitar plays:

B5
F#5
E5
(If you listen to the song you’ll get the stroking)

And that’s pretty much the whole song…
For the verses you play the main guitar’s intro and you can figure out the stroking from the song.

ENJOY! SUGARCULT KICKS BUM BUM!!!
Comments