Sugarcult - Sign Off Chords & Tabs

 

Sign Off Chords & Tabs

Sugarcult Chords & Tabs

Version: 3 Type: Tab 0 ratings
1 star 2 stars 3 stars 4 stars 5 stars
comments

Sign Off Tab

Sugarcult - Sign Off
Tabbed by: lindapinda32@hotmail.com

Intro:
e|--3---3---3---3---3---3---3---3-------|
b|--3---3---3---3---3---3---3---3-------|
g|----0---0---0---0---0---0---0---0-----|
d|--------------------------------------|
a|--------------------------------------|
e|--------------------------------------|


Verse:
e|--3---3---3---3---3---3---3---3-------|
b|--3---3---3---3---3---3---3---3-------|
g|----0---0---0---0---0---0---0---0-----|
d|--------------------------------------|
a|--------------------------------------|
e|--------------------------------------|
[ Tab from: http://www.guitartabs.cc/tabs/s/sugarcult/sign_off_tab_ver_3.html ]
e|--0---0---0---0---0---0---0---0-------|
b|--0---0---0---0---0---0---0---0-------|
g|--------------------------------------|
d|----2---2---2---2---2---2---2---2-----|
a|--------------------------------------|
e|--------------------------------------|

Chorus:
e|--3-3-3-3-3-3-3-3--0-0-0-0-0-0-0-0-|
b|--3-3-3-3-3-3-3-3--1-1-1-1-1-1-1-1-|
g|--0-0-0-0-0-0-0-0--0-0-0-0-0-0-0-0-|
d|--0-0-0-0-0-0-0-0--2-2-2-2-2-2-2-2-|
a|--2-2-2-2-2-22-2--3-3-3-3-3-3-3-3-|
e|--3-3-3-3-3-3-2-2--0-0-0-0-0-0-0-0-|

End:
e|--3--|
b|--3--|
g|--0--|
d|--0--|
a|--2--|
e|--3--|

Easy song from a cool band :D
Comments