Sugarcult - Sign Off Chords & Tabs

 

Sign Off Chords & Tabs

Sugarcult Chords & Tabs

Version: 2 Type: Tab 0 ratings
1 star 2 stars 3 stars 4 stars 5 stars
comments

Sign Off Tab

Tabbed by:maysha watson
Email:watson_hurleychik@yahoo.com 

Tuning:standard

intro:
e|--3-------|
b|--3-------|
g|----0-(8x)|
d|----------|
a|----------|
e|----------|

verse:
e|--3---------0-------|
b|--3---------0-------|
g|----0-(8x)----------|
d|--------------2-(8x)|
a|--------------------|
e|--------------------|
repeat this over and over throughout the verse.
[ Tab from: http://www.guitartabs.cc/tabs/s/sugarcult/sign_off_tab_ver_2.html ]
chorus:
e|--3-3-3-3-3-3---------------|
b|--3-3-3-3-3-3--1-1-1-1-1-1--|
g|----------------------------|
d|---------------2-2-2-2-2-2--|
a|--2-2-2-2-2-2--3-3-3-3-3-3--|
e|--3-3-3-3-3-3---------------|
start this on "sign off...sign off..." and continue till the end.

end on:
e|--3--|
b|--3--|
g|-----|
d|-----|
a|--2--|
e|--3--|

this isn't perfect, i'm sure, but it's damn near close. i hope you enjoy that tab. sugarcult rocks!

lyrics:
-VERSE-
wake up all alone
sending postcards back to home
from the road
if the medication works
could i be the way i was
in control
you painted a picture
i'm the worst type of sinner
you know
you painted a picture
happier than i can afford
nobody can save me
nobody can save me
nobody can say what i'll do if i'm alone

-CHORUS-
sign off
sign off
sign off
sign off
sign off (nobody can save me..)
sign off
sign off
sign off
Comments