Sugarcult - Shes The Blade Chords & Tabs

 

Shes The Blade Chords & Tabs

Sugarcult Chords & Tabs

Version: 3 Type: Tab 0 ratings
1 star 2 stars 3 stars 4 stars 5 stars
comments

Shes The Blade Tab

2nd guitar
Song: She's The Blade
Band: Sugarcult
Album: Palm Trees and Power Lines
Transcribed by: caleb LaBerge
this is the second guitar. i have the first guitar in another tab

pm: palm mute
 ^: bend
 /: slide

Intro: (lead)beginning
e-4-3-----------1-|
B-----4-1-4-1-4---| x4
G-----------------|
D-----------------|
A-----------------|
E-----------------|


Pre-Chorus: (lead)      00:26        
e------- -44-33----------------11-   -11-111-333-------|
B-1-1-1- -------44-11-44-11-44----   ------------11111-|
G------- -------------------------   ------------------|
D------- -------------------------   ------------------|
A------- -------------------------   ------------------|
E------- -------------------------   ------------------|
         ________slight pm________

           00:37            Part 2
e----------------------------|
B----------------------------|
G-3-5-6----10-8-10-12--------|the first part of this isnt correct
D----------------------------|but its close
A-1-3-4----8--6-8--10--------|x1
E----------------------------|
                                        


Chorus: (Lead) 00:43
e----------------------------------------|
B----------------------------------------| x2
G----------------------------------------|
D----------------------------------------|
A----------4444-3333-----------4444-3311-|
E-4-4-4-4------------2-2-2-2-/-----------|

[ Tab from: http://www.guitartabs.cc/tabs/s/sugarcult/shes_the_blade_tab_ver_3.html ]
Intro: (lead)00:56
e-4-3-----------1-|
B-----4-1-4-1-4---| x2
G-----------------|
D-----------------|
A-----------------|
E-----------------|


1:14
Pre-Chorus: (lead)       
e-------- ------------   --11-111-333-------|
B---1---- --4-6-8--9--   -------------1111--|
G-pick--- --6>8>10>11-   -------------------|
D-scrape- ------------   -------------------|
A-------- ------------   -------------------|
E-------- ------------   -------------------|

1:26
e----------------------------|
B----------------------------|
G-3-5-6----10-8-10-12--------|the first part of this isnt correct
D----------------------------|but its close
A-1-3-4----8--6-8--10--------|x1
E----------------------------|


Chorus: (Lead) 1:33
e----------------------------------------|
B----------------------------------------| x2
G----------------------------------------|
D----------------------------------------|
A----------4444-3333-----------4444-3311-|
E-4-4-4-4------------2-2-2-2-/-----------|


1:45
E--4-3-1------
B--------4-----
G--------------theres more to this 
D----------------
A----------------
E----------------


the one part 

2:15
Pre-Chorus: (lead)              
e--44-33----------------11- 
B--------44-11-44-11-44----   
G--------------------------   
D--------------------------4x   
A--------------------------   
E--------------------------   
         ________slight pm________

Chorus: (Lead) 2:28
e----------------------------------------|
B----------------------------------------| x4
G----------------------------------------|
D----------------------------------------|
A----------4444-3333-----------4444-3311-|
E-4-4-4-4------------2-2-2-2-/-----------|
Comments