Sugarcult - Shes The Blade Chords & Tabs

 

Shes The Blade Chords & Tabs

Sugarcult Chords & Tabs

Version: 2 Type: Tab 0 ratings
1 star 2 stars 3 stars 4 stars 5 stars
comments

Shes The Blade Tab

   
Ok guys there are no full tabs for this song on UG so i went on MX Tabs and got this one
for ya'll. I take no credit for this, give all the credit to Joe Cupo. I am merely 
the song to UG

Song: She's The Blade
Band: Sugarcult
Album: Palm Trees and Power Lines
Transcribed by: Joe Cupo

pm: palm mute
 ^: bend
 /: slide

Intro: (lead)
e-4-3-----------1-|
B-----4-1-4-1-4---| x4
G-----------------|
D-----------------|
A-----------------|
E-----------------|

Intro: (Rhythm)
e---------------------------------|
B---------------------------------| x2
G------------6666------------6666-|
D-6666666666-6666-3333333333-6666-|
A-6666666666-4444-3333333333-4444-|
E-4444444444------1111111111------|

Verse 1: (Rhythm)-faint, strum gently
e---------------------|
B---------------------| x1
G---------------------|
D---------------------|
A-3--------6--------3-|
E-1--------4--------1-|

Pre-Chorus: (lead)                   {play on first time only}
e------- -44-33----------------11-   -11-111-444-11111-|
B-1-1-1- -------44-11-44-11-44----   ------------------|
G------- -------------------------   ------------------|
D------- -------------------------   ------------------|
A------- -------------------------   ------------------|
E------- -------------------------   ------------------|
         ________slight pm________

Pre-Chorus:(Rhythm)   Part1                        Part 2
e--------------------------   --------------------------|
B--------------------------   --------------------------|
G--------------------------   --------------------------|
D-6-------33-333-333-33333-   -3-/-6-/-10-/-13--6-6-6-6-|
A-6-x16---33-333-333-33333-x2 -3-/-6-/-10-/-13--6-6-6-6-|x1
E-4-------11-111-111-11111-   -1-/-4-/--8-/-11--4-4-4-4-|
 __pm__                                         ___pm___

Chorus: (Rhythm)
e---------------------------------|
B---------------------------------| x2
G---------6-6-6-6---------6-6-6-6-|
D-6-6-6-6-6-6-6-6-3-3-3-3-6-6-6-6-|
A-6-6-6-6-4-4-4-4-3-3-3-3-4-4-4-4-|
E-4-4-4-4---------1-1-1-1---------|
[ Tab from: http://www.guitartabs.cc/tabs/s/sugarcult/shes_the_blade_tab_ver_2.html ]
Chorus: (Lead)
e----------------------------------------|
B----------------------------------------| x2
G----------------------------------------|
D----------------------------------------|
A----------4444-3333-----------4444-3333-|
E-4-4-4-4------------1-1-1-1-/-----------|

Back to Intro Riffs
-lead intro riff x2
-rhythm intro riff x1

Verse 2-is same thing

Pre-Chorus: (Rhythm)-same thing
Pre-Chorus: (lead)       {play on first time only}
e-------- -1^-3^-4^---   --11-111-444-11111-|
B---1---- ----------4^   -------------------|
G-pick--- ------------   -------------------|
D-scrape- ------------   -------------------|
A-------- ------------   -------------------|
E-------- ------------   -------------------|

Back to Chorus-Same for both guitars

Interlude:
e-4-4-4-/3----------------------------------------------|    [On second time of interlude
B----------4-4-1-1--------------------------------------| x2  play last 2 notes this way]
G-------------------6-6-6-6-----------------------------|     (4,3)
D-------------------6-6-6-6-----------------------------|
A-------------------4-4-4-44444-3333-     A-3333-4444--|
E-------------------------------------     E------------|

Bridge: (Rhythm)
e------------------------------4-x8------------------------------4-x8-|
B------------------------------2---------------------------------2----|
G---------------------------------------------------------------------|
D-6-x4--5-x4-------5-x4--6-x8------6-x4--5-x4--3-x4--5--x4-6--x8------|
A-4-----3----6-x4--3-----4---------4-----3-----1-----3-----4----------|
E------------4--------------------------------------------------------|
 ________________________________pm___________________________________

 Bridge continued, (still palm mute)
 ----------------------------|
 ----------------------------| x1
 ----------------------------|
 -6-x4-5-x4------5-x4-6-x8---|
 -4----3----6-x4-3----4----6-|
 -----------4--------------4-|

Bridge: (lead)
e-4-4-1-1-4-4-1-1-4-4-4-4-4-4-1-|
B-2--2--2--2--2--2--2--2--2--2--2--2--2--2-2-| x1
G---------------------------------------------|
D---------------------------------------------|
A---------------------------------------------|
E---------------------------------------------|

After Bridge:
-Rhythm plays Part 1 of Pre-Chorus (everything unmuted) x2
-And lead Plays Intro Riff x2

-Then go back to Chorus (same for both)

Outro Verse:
-Just play the interlude twice

Outro:
e-----------|
B-----------|
G-----------|
D-6-6-6-6-6-|
A-6-6-6-6-6-|
E-4-4-4-4-4-|

If you are confused anywhere just listen to the song.
Comments