Sugarcult - Shes The Blade Chords & Tabs

 

Shes The Blade Chords & Tabs

Sugarcult Chords & Tabs

Version: 1 Type: Bass Tab 0 ratings
1 star 2 stars 3 stars 4 stars 5 stars
comments

Shes The Blade Bass Tab

Band - Sugarcult
Song - She's The Blade

Verse:
G|-----------------------------------|
D|--------------------------------1--|
A|--------------4-3-------------4----| x4
E|--4-4-4-4-4-4-----1-1-1-1-1-1------| 


Prechorus:
G|-----------------------------|    |-----------------------------------| 
D|-----------------------------|    |-----------------------------------|
A|-----------------------------| x2 |------------------6-6-6-6-6-6-6-6--|
E|--4-4-4-4--1--1-1--1-1--1-1--|    |--6-6-6-6-6-6-6-6------------------|
[ Tab from: http://www.guitartabs.cc/tabs/s/sugarcult/shes_the_blade_btab.html ]
Chorus:
G|------------------------------------|
D|------------------------------------|
A|----------4-4-4-4---------4-4--6-6--| x2
E|--4-4-4-4---------6-6-6-6-----------|  


Bridge: 
G|---------------------------|
D|---------------------------|
A|---------------------------|
E|--4/1--4/1--4/1--4/1--4/1--|

Prechorus:
G|-----------------------------|    |-----------------------------------| 
D|-----------------------------|    |-----------------------------------|
A|-----------------------------| x2 |------------------6-6-6-6-6-6-6-6--|
E|--4-4-4-4--1--1-1--1-1--1-1--|    |--6-6-6-6-6-6-6-6------------------|

Chorus:
G|------------------------------------|
D|------------------------------------|
A|----------4-4-4-4---------4-4--6-6--| x2
E|--4-4-4-4---------6-6-6-6-----------|  

End:
G|-------------|
D|-------------|
A|-------------|
E|--4-4-4-4-4--|
Comments