Sugarcult - Pretty Girl Chords & Tabs

 

Pretty Girl Chords & Tabs

Sugarcult Chords & Tabs

Version: 2 Type: Tab 0 ratings
1 star 2 stars 3 stars 4 stars 5 stars
comments

Pretty Girl Tab

Band:  Sugarcult
Song:  Pretty Girl (The Way)
Album: Start Static

Tuned up a half step (F-A#-D#-G#-C-F) OR use a capo on first fret

Intro Part I:
------0-------0-------0-------0-------------------------------------|
--1-------0-------1-------0--------------1-------1---1---1-------1--|
----2---2---2---2---2---2---2---2----2-------4---------------4------|
---------------------------------------3---3---3---3---3---3---3---3|
--------------------------------------------------------------------|
--------------------------------------------------------------------|

Intro Part II:
(Guitar 1)
----13--12--------------------------13--12----------------------|
------------13------------------------------13------------------|
------------------14------14----------------------14------14----|
----------------------14------14----------------------14--------|
----------------------------------------------------------------|
----------------------------------------------------------------|

Intro Part II:
(Guitar 2)
-0-0--0---0-0--0---0-0--0---0-0--0---0-0--0---0-0--0---0-0--0---------|
-1-1--1---0-0--0---3-3--3---1-1--1---1-1--1---0-0--0---3-3--3---------|
-2-2--2---2-2--2---2-2--2---2-2--2---2-2--2---2-2--2---2-2--2---------|
-2-2--2---2-2--2---3-3--3---3-3--3---2-2--2---2-2--2---3-3--3---------|
-0-0--0---0-0--0---0-0--0---0-0--0---0-0--0---0-0--0---0-0--0---------|
----------------------------------------------------------------5-7-5-|
[ Tab from: http://www.guitartabs.cc/tabs/s/sugarcult/pretty_girl_tab_ver_2.html ]
Pre-chorus:
-----------------------------------------------------------------|
---1---1---1---1---0---0---0---0---3---3---3---3---1---1---1---1-|
-2---2---2---2---2---2---2---2---2---2---2---2---2---2---2---2---|
-----------------------------------------------------------------|
-----------------------------------------------------------------|
-----------------------------------------------------------------|

Chorus:
--------------------------------------------|
--------------------------------------------|
----2---------2---------2---------2--4--5-4-|
----2----5----2----5----2----5----2--4--3-4-|
----0----5----0----5----0----5----0--2--3-2-|
---------3---------3---------3--------------|

Interlude
(Guitar 1)
e|---------------------------------------------|
B|---------------------------------------------|
G|--2-2-2-2--4-4-4-4--7-7-7-7--10-10-9-9-------|
D|--2-2-2-2--4-4-4-4--7-7-7-7--10-10-9-9-------|
A|--0-0-0-0--2-2-2-2--5-5-5-5---8--8-7-7-------|
E|---------------------------------------------|

Interlude
(Guitar 2)
Distortion w/wah or chorus effect
e|------------------------------------------------|
B|------------------------------------------------|
G|------------------------------------------------|
D|------------------------------------------------|
A|-0~0~0~0~--2~2~2~2~--5~5~5~5~--8-7~-------------|
E|------------------------------------------------|

VERSE 1 again with slight variation
NO INSTRUMENTALS
CHORUS
INTERLUDE

OUTRO
(casualy pick)
Clean Channel
---------------------------------------------------------------------|
-------------------------------5-------5--------4-------4----------2-|
---5~--4~---7~---10~--9~---5-------4---------5------4------------0---|
-----------------------------7---7---7---7-----2--2---2--2-----2-----|
-------------------------------------------------------------0-------|
---------------------------------------------------------------------|

Tabbed by zman919191@yahoo.com
Comments