Sugarcult - Memory Chords & Tabs

 

Memory Chords & Tabs

Sugarcult Chords & Tabs

Version: 9 Type: Tab 0 ratings
1 star 2 stars 3 stars 4 stars 5 stars
comments

Memory Tab

Band: Sugarcult
Song: Memory
Tabber: GibsonGuy64

Guitar 1/lead guitar

e|-4-4-4-4-4-4-4-4-4-4-4-2-1-2-4-4-4-4-4-4-4-4-4-4-2-1-2-------|
B|-------------------------------------------------------------|
G|-------------------------------------------------------------|
D|-------------------------------------------------------------|
A|-------------------------------------------------------------|
E|-------------------------------------------------------------|
[ Tab from: http://www.guitartabs.cc/tabs/s/sugarcult/memory_tab_ver_9.html ]
e|-------------------------------------------------------------|
B|-2-4-6----9-9-9-9-9-9--pick slide>---------------------------|
G|-------8-----------------------------6b-6b-6b-6b-6b-8-6-8-10-|
D|-------------------------------------------------------------|
A|-------------------------------------------------------------|
E|-------------------------------------------------------------|

e|-------------------------------------------------------------|
B|---9-9-7-6-7-9-9-7-6-7---------------------------------------|
G|-8-----------------------------------------------------------|
D|-----------------------4~--6~--8~--15~-----------------------|
A|-------------------------------------------------------------|
E|-------------------------------------------------------------|


I think this tab is rite i mite have miss counted some of the notes that u hit over and 
again but listen to the song ull get it!

Hope Ya Like It!


Questions e mail me : GibSonGuitariSt3@aol.com
Comments