Sugarcult - Memory Chords & Tabs

 

Memory Chords & Tabs

Sugarcult Chords & Tabs

Version: 8 Type: Tab 0 ratings
1 star 2 stars 3 stars 4 stars 5 stars
comments

Memory Tab

   
-------------------------------------------------------------------------------
			     Memory (solo)by Sugarcult
-------------------------------------------------------------------------------
Tabbed by: checkered stars 
Email: the_spacepimps@yahoo.com
comments: i 'think' marko72 uses a wah wah in this song. 
and i 'think' this sounds pretty accurate

Tuning: standard

e|---------------------------------------------------------------------------|
B|---------------------------------------------------------------------------|
G|--13--13--13--13-13-13-11---10--11--11---13--13--13--13-13-13-11--10--11---|
D|---------------------------------------------------------------------------|
A|---------------------------------------------------------------------------|
E|---------------------------------------------------------------------------|
[ Tab from: http://www.guitartabs.cc/tabs/s/sugarcult/memory_tab_ver_8.html ]
e|---------------------------------------------------------------------------|
B|---------------------------------------------------------------------------|
G|---6--8--10---8--13--13--13-13--13---13~-----------------------------------|
D|---------------------------------------------------------------------------|
A|---------------------------------------------------------------------------|
E|---------------------------------------------------------------------------|

e|---------------------------------------------------------------------------|
B|---------------------------------------------------------------------------|
G|--10--10--10--10--10---13--6--8--10--8--13-13--11--10--11--11--13--13--11--|
D|---------------------------------------------------------------------------|
A|---------------------------------------------------------------------------|
E|---------------------------------------------------------------------------|

e|---------------------------------------------------------------------------|
B|---------------------------------------------------------------------------|
G|--10--11--11-----------------------------10~-------------------------------|
D|---------------------4~----6~--8~------------------------------------------|
A|---------------------------------------------------------------------------|
E|---------------------------------------------------------------------------|

| /  slide up
| \  slide down
| h  hammer-on
| p  pull-off
| ~  vibrato
| +  harmonic
| x  Mute note
===============================================================================
Comments