Sugarcult - Memory Chords & Tabs

 

Memory Chords & Tabs

Sugarcult Chords & Tabs

Version: 7 Type: Tab 0 ratings
1 star 2 stars 3 stars 4 stars 5 stars
comments

Memory Tab

   
-----------------------------------------------------------------------------
			     MEMORY - Sugarcult (ACOUSTIC)
-----------------------------------------------------------------------------
Tabbed by: ErnieJenkins
Email: fastaslightning482@hotmail.com

Tuning: down 1/2 step
Notes: Listen to the song to know strumming, there are 2 different guitar parts 

Intro                            
eb|---------------x-| 
Bb|-----x---------x-|                  
Gb|-7---7---7---7-x-|                  
db|-7---5---5---7-x-|                  
Ab|-5---7---5---5-x-|		     
Db|---------5-----x-|		     
[ Tab from: http://www.guitartabs.cc/tabs/s/sugarcult/memory_tab_ver_7.html ]
Verse
eb|---------| 2x
Bb|---x-----|
Gb|-7-7-7-7-|
db|-7-5-5-7-|
Ab|-5-7-5-5-|
Db|-----5---|

Chorus
eb|----------| 2x
Bb|---x------|
Gb|-7-7------|
db|-7-5-12-7-|
Ab|-5-7-9--7-|
Db|-----9--7-|

Back to verse 2x

then chorus 2x

Interlude
eb|-------| 2x 
Bb|-------|
Gb|-7-7---|
db|-7-5-5-|
Ab|-5-7-5-|
Db|-----5-|

eb|---------| continues with variations of the last chord
Bb|---------|
Gb|-------7-|
db|-12-12-5-|
Ab|-9--7--5-|
Db|-9--7--5-|

play verse and chorus you'll get the hang of it 

ending notes
eb|-----|
Bb|--7--|
Gb|-9---|
db|---9-|
Ab|-----|
Db|-----|

My first tab, so enoy, all of it is done by ear, but i think its pretty damn close! thanks

Ernie Jenkins
Comments