Sugarcult - Memory Chords & Tabs

 

Memory Chords & Tabs

Sugarcult Chords & Tabs

Version: 1 Type: Tab 3 ratings
1 star 2 stars 3 stars 4 stars 5 stars
comments

Memory Tab

   
Artist - Sugarcult
Song - Memory
Tabbed By - Mute-Child
Tuning: Standard

Intro (Guitar 1 Only)

e|------------------|
B|------------------|
G|--6-6-6-6-6-6-6-6-| x2
D|--x-x-x-x-x-x-x-x-|
A|--4-4-4-4-4-4-4-4-|
E|------------------|

Verse 1 (Guitar 1 Only)

e|-------------------------------------|
B|-------------------------------------|
G|-6--------8--------11--------6-------|
D|-x-(x16)--x-(x16)--x--(x16)--x-(x16)-| x2
A|-4--------6--------9---------4-------|
E|-------------------------------------|

Chorus (Both Guitars)

e|------------------------------------|
B|------------------------------------|
G|-6----------------------------------| x2
D|-6-(x16)--4-(x16)--8-(x16)--6-(x16)-|
A|-4--------4--------8--------6-------|
E|----------2--------6--------4-------|
 (ON SECOND TIME THROUGH PLAY LAST CHORD 14 TIMES ((on this chorus only)))

Post Chorus:
(Guitar 1)

e|------------------------------------------------------|
B|------------------------------------------------------|
G|-x-x-x-x-6-x-x------------------6-x-x-----------------|
D|-x-x-x-x-6-x-x-6-4-x-4-4-x-4-4--6-x-x-6-4-x-4-4-x-4-4-|
A|-x-x-x-x-4-x-x-6-4-x-4-4-x-4-4--4-x-x-6-4-x-4-4-x-4-4-|
E|---------------4-2-x-2-2-x-2-2--------4-2-x-2-2-x-2-2-|

(Guitar 2)

e|---------------------------------------------------------------------|
B|---------------------------------------------------------------------|
G|-x-x-x-x-13-x-x-8-11-x-x-11-x-11-11-11-13-x-x-8-11-x-x-11-x-11-11-11-|
D|-x-x-x-x-x--x-x-x-x--x-x-x--x-x--x--x--x--x-x-x-x--x-x-x--x-x--x--x--|
A|-x-x-x-x-11-x-x-6-9--x-x-9--x-9--9--9--11-x-x-6-9--x-x-9--x-9--9--9--|
E|---------------------------------------------------------------------|

Verse 2:
(Guitar 1)

e|--#-----------------------------#-----------------------------|
B|--*-----*--------*-----*--------*-----*--------*-----*--------|
G|--6-----6----6---6-----6----6---8-----8----8---8-----8----8---|
D|--------------------------------------------------------------|
A|----4-4---4-4--4---4-4---4-4--4---6-6---6-6--6---6-6---6-6--6-|
E|--------------------------------------------------------------|
 (Palm Mute All Notes On The 'A' String)

e|---#----------------------------------#---------------------------|
B|---*------*----------*------*---------*-----*----------*-*-*-*-**-|
G|--11-----11----11---11-----11----11---6-----6----6---6-----6----6-|
D|------------------------------------------------------------------|
A|-----9-9---9-9----9----9-9----9-9---9---4-4---4-4--4---4-4---4-4--|
E|------------------------------------------------------------------|
 (Palm Mute All Notes On The 'A' String)
 (#’s indicate guitar 2’s first 4 chords on first time through)
 (*’s indicate guitar 2’s other chords on second time through)
(Guitar 2) (COMES IN SECOND TIME THROUGH)

e|------------------|
B|------------------|
G|--6~~~--------6~~~|
D|--6~~~4~~~6~~~6~~~|
A|--4~~~4~~~6~~~4~~~|
E|------2~~~4~~~----|

e|---------------------------------------------------------------|
B|---------------------------------------------------------------|
G|-6--6--6--6--8--8--8--8--11--11--11--11--6--6--6-6-6-6-6-6-6-6-|
D|-x--x--x--x--x--x--x--x--x---x---x---x---x--x--x-x-x-x-x-x-x-x-|
A|-4--4--4--4--6--6--6--6--9---9---9---9---4--4--4-4-4-4-4-4-4-4-|
E|---------------------------------------------------------------|

THEN PLAY CHORUS AGAIN

*PAUSE* Listen for timing when this note is hit:

Guitar 1			Guitar 2

e|------|			e|------|
B|------|			B|------|
G|--11--|			G|--13--|
D|--x---|			D|---x--|
A|--9---|			A|--11--|
E|------|			E|------|

Solo:

(Guitar 1)
[ Tab from: http://www.guitartabs.cc/tabs/s/sugarcult/memory_tab.html ]
e|-----------------------------------------------------------------|
B|--9-9-9-9-9-9-9-9-9-9-7-7-6-6-7-9-9-9-9-9-9-9-9-9-9-7-7-6-6-7\---|
G|-----------------------------------------------------------------|
D|-----------------------------------------------------------------|
A|-----------------------------------------------------------------|
E|-----------------------------------------------------------------|

e|-----------------------------------------------------------------|
B|---------------------------9-9-9-9-9-9-9-9-***PICK SCRAPE***-----|
G|--5b----7b----9b----7b-11----------------------------------------|
D|-----------------------------------------------------------------|
A|-----------------------------------------------------------------|
E|-----------------------------------------------------------------|

e|---6~~~-------------------------------------------------------------|
B|---6-6--6-6--6-6--6-6--6-6---9--------------9-9-7-7-6-6-7-7-9-9-7-7-|
G|---8b~~-8b~~-8b~~-8b~~-8b------6~-8~-10~-8~-------------------------|
D|--------------------------------------------------------------------|
A|--------------------------------------------------------------------|
E|--------------------------------------------------------------------|
 (bend that note on the 8th until it is in unison with the other note        
  and just let the bottom string note ring)

e|------------------------------------------------|
B|-6-6-7-7----------------------------------------|
G|-------------------------10~~~~~----------------|
D|----------4~~~~6~~~~8~~~~---11~~~~~~let-fade----|
A|------------------------------------------------|
E|------------------------------------------------|

(Guitar 2)

e|------------------------------------------------------------------|
B|------------------------------------------------------------------|
G|--6-6-6-6-6-6-6-6-6-6-6-6-----------------------------------------|x2
D|--6-6-6-6-6-6-6-6-6-6-6-6-6-6-6-4-4-4-4-4-4-4-4-4-4-4-4-4-4-4-4-4-|
A|--4-4-4-4-4-4-4-4-4-4-4-4-6-6-6-4-4-4-4-4-4-4-4-4-4-4-4-4-4-4-4-4-|
E|--------------------------4-4-4-2-2-2-2-2-2-2-2-2-2-2-2-2-2-2-2-2-|

e|------------------------------------------------------------------|
B|------------------------------------------------------------------|
G|------------------------------------------------------------------|
D|--8-8-8-8-8-8-8-8-8-8-8-8-6-6-6-4-4-4-4-4-4-4-4-4-4-4-4-4-4-4-4-4-|
A|--8-8-8-8-8-8-8-8-8-8-8-8-6-6-6-4-4-4-4-4-4-4-4-4-4-4-4-4-4-4-4-4-|
E|--6-6-6-6-6-6-6-6-6-6-6-6-4-4-4-2-2-2-2-2-2-2-2-2-2-2-2-2-2-2-2-2-|

e|------------------------------------------------------------------|
B|------------------------------------------------------------------|
G|------------------------------------------------------------------|
D|--8-8-8-8-8-8-8-8-8-8-8-8-6-6-6-4-4-4-4-4-4-4-4-4-4-4-4-4-4-4-4---|
A|--8-8-8-8-8-8-8-8-8-8-8-8-6-6-6-4-4-4-4-4-4-4-4-4-4-4-4-4-4-4-4---|
E|--6-6-6-6-6-6-6-6-6-6-6-6-4-4-4-2-2-2-2-2-2-2-2-2-2-2-2-2-2-2-2---|
                                PM-|___| |___| |___| |___| |___|

*DRUMS AND VOCALS* then:

Guitar 1

e|-----------------------------------------------------------------------|
B|--------------------------------------------------------------------|
G|-----11-----11----11---11-----11----11---6-----6----6---6-----6----6---|
D|-----------------------------------------------------------------------|
A|--------9-9---9-9----9----9-9----9-9---9---4-4---4-4--4---4-4---4-4--4-|
E|-----------------------------------------------------------------------|
 (Palm Mute All Notes On The 'A' String)

e|----------------------------------------------|
B|----------------------------------------------|
G|-11-----11---11---11-----11----11----6--------|
D|-------------------------------------x--------|
A|----9-9---9-9----9----9-9----9-9---9-4--------|
E|----------------------------------------------|
 (when playing the last chord, start quiet and build up volume) 
 (Palm Mute All Notes On The 'A' String)

THEN PLAY CHORUS TWICE (4 times through TAB in all) 
(Last chord 14 times on 4th time only)

THE PLAY POST CHORUS TWICE

End on:

Guitar 1

e|--------------|			e|--------------|
B|--------------|			B|--------------|
G|--6-----------|			G|--13--8--11---|
D|--6---6---4---|			D|---x--x---x---|
A|--4---6---4---|			A|--11--6---9---|
E|------4---2---|			E|--------------|
Comments