Sugarcult - How Does It Feel Chords & Tabs


How Does It Feel Chords & Tabs

Sugarcult Chords & Tabs

Version: 3 Type: Tab 0 ratings
1 star 2 stars 3 stars 4 stars 5 stars

How Does It Feel Tab

This is how the song is really played.
I play this a lot and perfected myself at it so it matches the music, and if you want to
argue about that then i suggest you listen to the song agian... 

Email at to thank me. -Danny

*Standard Tuning*


Start Riff        Main1
|--------------| |-------------------------------------|
|--------------| |------------------------/10--10------|
|--------------| |-8-8-8---8-8-8---8-8-8--/--10--10----|3x(after goto main2) 
|--88888--8\-3-| |-x-x-x---x-x-x---x-x-x---------------|
|--88888--8\-3-| |-6-6-6---6-6-6---6-6-6---------------|
|--66666--6\-1-| |-------------------------------------|
   ^Mute^                                 ^slide up

|----------------------------|**NOTE: It's your preference to mute the
|----------------------------| D string... play it loud if u want,
|-8-8-8---8-8-8---8-8-8-8-\--| either way it still sounds good.**
                          ^slide down but not too far then go into verse
[ Tab from: ]
|---------------5------8------|x1 Then Play Verse2
   ^Mute This Entire Piece^

 (This riff is a mix of mutes and non mutes... all the mutes have a *)

|-------10-10-------10-10-------10-10-------10-10-|x4 (right back to Main1)
(you can play chords during this... but this is in the back and it sounds much better.
That is, if you want to go above playing just power chords. Else you can just play chords
by ear because i dont feel like tabbing them now... gotta work.)

I left out everything except the solo and im sorry... ill post it later. And again, all
above is 100% right. Email Again is