Sugarcult - Hate Every Beautiful Day Chords & Tabs

 

Hate Every Beautiful Day Chords & Tabs

Sugarcult Chords & Tabs

Version: 7 Type: Tab 0 ratings
1 star 2 stars 3 stars 4 stars 5 stars
comments

Hate Every Beautiful Day Tab

------------------------------------------------------------------
Hate Every Beautiful Day, by SugarCult
-------------------------------------------------------------------
Tabbed by theDivineInhumanity
Standard tuning
Great Song, the verses and chorus are pretty easy, but the Riffs and bridges are cool

Intro (Riff) It sounds better with the low E power chords the second guitar plays. 
this 4 times for the intro.
e| -5-6-3-6-3-6-3---5-6-3-6-3-6-3------------------------------|
B| ----------------------------------------------------------------|
G| ----------------------------------------------------------------|
D| ----------------------------------------------------------------|
A| ----------------------------------------------------------------|
E| ----------------------------------------------------------------|
[ Tab from: http://www.guitartabs.cc/tabs/s/sugarcult/hate_every_beautiful_day_tab_ver_7.html ]
Verse
e| -----------------------------------------------------------------|
B| -----------------------------------------------------------------|
G| -----------------------------------------------------------------|
D| -2-2-2-2-3-3-3-3-5-5-5-5-2-2-2-2-4-4-4-4-5-5-5-2-2--3-3-5-5----|
A| -2-2-2-2-3-3-3-3-5-5-5-5-2-2-2-2-4-4-4-4-5-5-5-2-2--3-3-5-5----|
E| -0-0-0-0-1-1-1-1-3-3-3-3-0-0-0-0-2-2-2-2-3-3-3-00-1-1-3-3----|
    PM--------------------------------------------------------------|

Chorus
e| -----------------------------------------------------------------|
B| -----------------------------------------------------------------|
G| -----------------------------------------------------------------|
D| -----------------------------------------------------------------|
A| -----------------------------------------------------------------|
E| -0-0-0-3-3-2-2-1-1-0---0-0-0-3-3-2-2-1-1-0---0-0-0-3-3-2-2-1-1-0-|

Riff

Verse

Chorus

Bridge
e| -5-6-3-6-3-6-3--6-3--5-6-3-6-3-6-3--6-312/------------------|
B| -----------------------------------------------------------------|
G| -----------------------------------------------------------------|
D| -----------------------------------------------------------------|
A| -----------------------------------------------------------------|
E| -----------------------------------------------------------------|

Chorus:  two times
Comments