Sugarcult - Hate Every Beautiful Day Chords & Tabs

 

Hate Every Beautiful Day Chords & Tabs

Sugarcult Chords & Tabs

Version: 5 Type: Tab 0 ratings
1 star 2 stars 3 stars 4 stars 5 stars
comments

Hate Every Beautiful Day Tab

tabbed by Coop

Guitar 1
E-------------------
B-------------------
G-------44-66-------       4x
D-66-22-44-66-------
A-66-22-22-44-------
E-44-00-------------

Guitar 2
E--4-2--4-2--4-2--------------
B-0----0----0----0-4-2-4------
G-----------------------------          4x
D-----------------------------
A-----------------------------
E-----------------------------

Verse
E-------------------
B-------------------
G-------44-66-------                 2x
D-66-22-44-66-------
A-66-22-22-44-------
E-44-00-------------
[ Tab from: http://www.guitartabs.cc/tabs/s/sugarcult/hate_every_beautiful_day_tab_ver_5.html ]
Guitar 1-PM
E---------------------------
B---------------------------
G-----------4444-6666-------                2x
D-6666-2222-4444-6666-------
A-6666-2222-2222-4444-------
E-4444-0000-----------------

Guitar 2 (just make the power chords into bar chords)
E---------------------------------
B-----4-------0-------4-------6---
G---5---5---1---1---4---4---6---6-            2x
D---------------------------------
A-----------------2-------4-------
E-4-------0-----------------------

Chorus
E--------------------------------
B--------------------------------
G-------------44444-66666--------         3x
D-66666-22222-44444-66666--------
A-66666-22222-22222-44444--------
E-44444-00000--------------------

'cause I hate every beautiful day
E---2----4-----
B---4----6-----
G---4----6-----
D---4----6-----
A---2----4-----
E--------------

I'm too lazy to tab the solo stuff so you can
Comments