Sugarcult - Hate Every Beautiful Day Chords & Tabs

 

Hate Every Beautiful Day Chords & Tabs

Sugarcult Chords & Tabs

Version: 4 Type: Tab 0 ratings
1 star 2 stars 3 stars 4 stars 5 stars
comments

Hate Every Beautiful Day Tab

------------------------------------------------------------------------------- 
HATE EVERY BEAUTIFUL DAY -Sugarcult 
------------------------------------------------------------------------------- 

By: [Mok]Sunny L. 

Guitar 1: Chords for Intro, Verse, Prechorus(muted) 
e|---------------------------------------------------------------------------| 
B|---------------------------------------------------------------------------| 
G|------4-6------------------------------------------------------------------| 
D|--6-2-4-6------------------------------------------------------------------| 
A|--6-2-2-4------------------------------------------------------------------| 
E|--4-0----------------------------------------------------------------------| 
[ Tab from: http://www.guitartabs.cc/tabs/s/sugarcult/hate_every_beautiful_day_tab_ver_4.html ]
Guitar 2: Intro 
e|----------4--2--------4--2--------4--2-------------------------------------| 
B|----0--0---------0--0-------0--0--------0--0-----4s3s4---------------------| 
G|---------------------------------------------------------------------------| 
D|---------------------------------------------------------------------------| 
A|---------------------------------------------------------------------------| 
E|---------------------------------------------------------------------------| 

Guitar 1: second half of solo 
e|---------------------------------------------------------------------------| 
B|-------4-4-4-4--0-0-0-0----------------------------------------------------| 
G|---------------------------------------------------------------------------| 
D|-------------------------3-3-3-3--1-1-1-1----------------------------------| X2 
A|---------------------------------------------------------------------------| 
E|---------------------------------------------------------------------------| 

Guitar 1: Chorus 
e|--------------------------------0---0--------------------------------------| 
B|--------------------------------0---0--------------------------------------| 
G|------4-6-----------------------2---2--------------------------------------| 
D|--6-2-4-6----X3---and then ------------------------------------------------| 
A|--6-2-2-4------------------------------------------------------------------| 
E|--4-0----------------------------------------------------------------------| 

I think thats it, its my first tab so give me a break 

===============================================================================
Comments