Sugarcult - Hate Every Beautiful Day Chords & Tabs

 

Hate Every Beautiful Day Chords & Tabs

Sugarcult Chords & Tabs

Version: 3 Type: Tab 0 ratings
1 star 2 stars 3 stars 4 stars 5 stars
comments

Hate Every Beautiful Day Tab

This is my first try at tabbing a song, so i pulled it all off by ear.. sorry if its off but 
it sounds damned right to me. 



intro:

(note, the intro is actually being done with two guitars, so if you have 2 people split the
initial chord hit to one guitar, and the 6 to 4 on the D string with the other guitar.  however
if your like me and are all alone, this works fine too.  Just gotta get the fingerring fast 
enough)

E-----------------|-----------------|-----------------|-----------------|
B-----------------|-----------------|-----------------|-----------------|
G-----------------|-----------------|--4--4-----------|--6--6-----------| x4 except the fourth
D--6---6---6---4--|---2---2--6--4---|--4--4----6---4--|--6--6--6\4/6----|  time at the end just
A--6---6----------|---2---2---------|--2--2-----------|--4--4-----------|  do 4/6 and then hold 
E--4---4----------|---0---0---------|-----------------|-----------------| on the 6




riff 1:

E-----------------|-----------------|-----------------|-----------------|
B-----------------|-----------------|-----------------|-----------------|
G-----------------|-----------------|---4-------------|---6-------------|	use soft chords here
D---6-------------|---2-------------|---4-------------|---6-------------|   SIDENOTE: i like to 
A---6-------------|---2-------------|---2-------------|---4-------------|    just pluck these triad's notes
E---4-------------|---0-------------|-----------------|-----------------|    one by one to give the
																			 soft feeling.  
	somethings gotta change again, im losing my inspiration's 
	seeing through some different eyes i cant find my medication's 

[ Tab from: http://www.guitartabs.cc/tabs/s/sugarcult/hate_every_beautiful_day_tab_ver_3.html ]
E-----------------|-----------------|-----------------|-----------------|
B-----------------|-----------------|-----------------|-----------------|
G-----------------|-----------------|--4--4-----------|--6--6-----------|  power chords here
D--6--6-----------|--2--2-----------|--4--4-----------|--6--6-----------|
A--6--6-----------|--2--2-----------|--2--2-----------|--4--4-----------|
E--4--4-----------|--0--0-----------|-----------------|-----------------|

	gone, oh no oh no.
	filled again, again
	


riff 2:

E-----------------|-----------------|-----------------|-----------------|
B-----------------|-----------------|-----------------|-----------------|
G-----------------|-----------------|--4---4---4---4--|--6---6---6---6--|
D--6---6---6---6--|--2---2---2---2--|--4---4---4---4--|--6---6---6---6--|
A--6---6---6---6--|--2---2---2---2--|--2---2---2---2--|--4---4---4---4--|
E--4---4---4---4--|--0---0---0---0--|-----------------|-----------------|

	i can feel a change i can feel can you feel it?
	sit on the street watching heat from the pavement
	cause im here ready to take it
	all here, everything feeling
	unclear, i wish it was raining
	
riff 3:

E-----------------|-----------------|-----------------|-----------------|
B-----------------|-----------------|-----------------|-----------------|
G-----4-----------|-----6-----------|-----------------|-----------------|
D-----4-----------|-----6-----------|-----------------|-----------------|
A-----2-----------|-----4-----------|-----------------|-----------------|
E-----------------|-----------------|-----------------|-----------------|


	cuz i hate every beautiful day
	
	
Intro:  (second 2 times through)

Riff 1:
	Faces in the crowd fake smiles, for miles my imitations blown
	open, again again
	trapped inside this cheap motel, what is hell turning the 
	channels on, my head, my bed

Riff 2:
	i can feel a change i can feel can you feel it?
	sit on the street watching heat from the pavement
	cause im here ready to take it
	all here, everything feeling
	unclear, i wish it was raining
	
Riff 3:

	cuz i hate every beautiful day
	
etc etc, the song goes on and has some more complicated things with the electric guitar, 
but since im tabbing this on an acoustic ir eally have no idea what effects they are using, 
but overall the song uses the same basic 4 chord set.  Keep using it and figure it out yourself.

Email me with any questions, ecko@askthefool.com














Comments