Sugarcult - Daddys Little Defect Chords & Tabs

 

Daddys Little Defect Chords & Tabs

Sugarcult Chords & Tabs

Version: 2 Type: Tab 0 ratings
1 star 2 stars 3 stars 4 stars 5 stars
comments

Daddys Little Defect Tab

Alright well i think this is a pretty cool song by sugarcult and i was playing
around one day and i think this tab is at least pretty close. this is my first
tab so any corrections or whatever are welcome.

*=dead strings
x=P.M.
()=let ring
/=slide

Intro


|-0x16------00000-------00000-------00000----------|  X2
|--------------------------------------------------|
|------------------------------------------7-7-----|
|------7-7---------7-7---------7-7---------7-7--5-5|
|------7-7---------7-7---------7-7---------5-5--5-5|
|------5-5---------5-5---------5-5--------------3-3|

Verse

|----------------------------------|   X2
|----------------------------------|
|----------------------7-7-7-------|
|-7-7-7--7-7-7--7-7-7--7-7-7--5-5--|
|-7-7-7--7-7-7--7-7-7--5-5-5--5-5--|
|-5-5-5--5-5-5--5-5-5--*------3-3--|
  *      *      *

Pre-chorus

Just listen to the song to find out how many times to strum each chord.

|------------------|----------|---------------|----------|
|------------------|----------|---------------|----------|
|---------7--------|-7-7------|---------------|----------|
|--7------7------5-|-7-7-5-5--|-3333333--xxxx-|--5---7---|
|--7------5------5-|-5-5-5-5--|-3333333--xxxx-|--5x4-7x4-|
|--3-------------3-|-----3-3--|-1111111--xxxx-|--3---5---|
                    1st time   2nd time        after 2nd verse

Chorus

again listen to the song to find out how many times to strum each chord.
[ Tab from: http://www.guitartabs.cc/tabs/s/sugarcult/daddys_little_defect_tab_ver_2.html ]
|--------------------------|---------------|-------------|
|--------------------------|---------------|-------------|
|-------7-------7-------7--|---------------|--9----------|
|--7----7---7---7---7---7--|-55555555-7----|--7x12-------|
|--7----5---7---5---7---5--|-55555555-7----|--7----------|
|--5--------5-------5------|-33333333-5----|-------------|
                            after 1st verse  after 2nd verse
im not exactly sure how the chorus ends when the song is ending just listen
to the song and ull get it.

repeat intro x1
repeat verse x2
repeat prechorus
repeat chorus

Solo

i did as best i could for the solo i know its not all the way right but
the other tab up for this song doesnt have a tab for it so i thought id try.

|-------------------------|
|--(10)-9-7-8/9-(10)------|
|-------------------------|
|-------------------------|
|-------------------------|
|-------------------------|

then theres the part where he sings "letting go...letting go again"
i couldnt figure out the palm muted part right there but after that
it goes to this.

|--------------------------------------|---------------|
|--x-x-9-9--x-x-5-5--x-x-7-7--x-x-5-5--|--x-x-55555555-|
|--x-x-9-9--x-x-5-5--x-x-7-7--x-x-5-5--|--x-x-55555555-|
|--x-x-7-7--x-x-3-3--x-x-5-5--x-x-3-3--|--x-x-33333333-|
|--------------------------------------|---------------|
|--------------------------------------|---------------|
                                       2nd time u end with this

repeat verse x2 
repeat prechours x1 but ad pick slide at the end
repeat chorus alot

end the song with this

|--00000------------------|
|-------------------------|
|--------7-7--------------|
|--------7-7--------------|
|--------5-5--------------|
|-------------------------|

thats it, any corrections or comments feel free to email me at
hockeymunkee29@hotmail.com

TABBED BY: THE ALBINO
Comments