Sugarcult - Crashing Down Chords & Tabs

 

Crashing Down Chords & Tabs

Sugarcult Chords & Tabs

Version: 3 Type: Tab 0 ratings
1 star 2 stars 3 stars 4 stars 5 stars
comments

Crashing Down Tab

i'm only guessing, but this SHOULD sound alright
eb--------------------------------------------
Bb-------------------3------------------------
Gb-------7-----------4----------4/6------6/7--
Db----7--7--------4--4----------5/7------7----
Ab--5--------0--2-------0----5----7---7-------
Eb-------------------------3------5-5---------

eb-------------------------------------------------
Bb-------------3-----------------------3-----------
Gb-------0-----------0-----------0-----------0-----
Db----4-----4-----4-----4-----4-----4-----4-----4--
Ab--2----------------------2-----------------------
Eb-------------------------------------------------
[ Tab from: http://www.guitartabs.cc/tabs/s/sugarcult/crashing_down_tab_ver_3.html ]
Comments