Sugarcult - Crashing Down Chords & Tabs

 

Crashing Down Chords & Tabs

Sugarcult Chords & Tabs

Version: 1 Type: Tab 0 ratings
1 star 2 stars 3 stars 4 stars 5 stars
comments

Crashing Down Tab

   
I got this from a different site, and decided to post it here…
INTRO
E--------|--------|--------|--------|--------|--------|
B-----7--|-----3--|--------|--------|-----7--|-----3--|
G-----7--|-----4--|-----4/6|-----6/7|-----7--|-----4--|
D---7----|---4----|-----5--|-----7--|---7----|---4----|
A-5-----0|-2------|---5----|---7----|-5-----0|-2------|
E--------|-------0|-3------|-5------|--------|-------0|

E--------|--------|---------|--------|-----------------
B--------|--------|---------|--------|-----------------
G-----4/6|-----6/7|------0--|-----0--|-----------------
D-----5--|-----7--|---------|--------|-----------------
A---5----|---7----|----9---9|---9---0|-----------------
E-3------|-5------|--7------|-7------|-----------------

VERSE 
E--------|--------|--------|--------|--------|--------|-
B-----7--|-----3--|--------|-----5--|-----7--|-----3--|-
G-----7--|-----4--|-----4--|-----5--|-----7--|-----4--|-
D---7----|---4----|-----5--|---5----|---7----|---4----|-
A-5-----0|-2------|---5----|-3-----0|-5-----0|-2------|-
E--------|-------0|-3-----3|--------|--------|-------0|-

E--------|---------|-------0-|--------|-------0|-------|--
B--------|-----5---|---------|---0----|--------|-------|--
G-----4--|-----5---|-----2---|-------2|---2-2--|---2---|--
D-----5--|---5-----|---3-----|--------|---3----|-----3-|--
A---5----|-3------0|---------|--------|--------|-------|--
E-3-----3|---------|-1-------|--------|-1------|-------|--

CHORUS : D bm G A (x4)

(intro to verse)
E---------|--------|--------|--------|---------------------
B---------|--------|--------|--------|---------------------
G-0---0---|-----0--|-----0--|-----0--|---------------------
D---------|--------|--------|--------|---------------------
A---9---9-|---9---9|---9---9|---9---0|---------------------
E---------|-7------|-7------|-7------|---------------------

PLAY VERSE
THEN CHORUS (of course x4)
[ Tab from: http://www.guitartabs.cc/tabs/s/sugarcult/crashing_down_tab.html ]
Intro to solo…
E---------|--------|--------|--------|---------------------
B---------|--------|--------|--------|---------------------
G-----0---|-----0--|-----0--|-----0--|---------------------
D---------|--------|--------|--------|---------------------
A---9---9-|---9---9|---9---9|---9---0|---------------------
E-7-------|-7------|-7------|-7------|---------------------

Solo :
E--------|-----------|----------|----------|----------|----
B--------|-----------|----------|----------|----------|----
G-6h7----|-6---6h7---|----------|----------|----------|----
D--------|---------7-|----------|---7-h8-7-|----------|----
A--------|-----------|------10--|----------|----------|----
E--------|-----------|----------|----------|-------10-|----

E---------|---------|----------|---------|---------|-------
B---------|---------|----------|---------|---------|-------
G---------|-9------6|----------|-----0---|-----0---|-------
D---------|---------|---7------|---------|---------|-------
A---7-9---|---------|-----10-9-|-------9-|---9---9-|-------
E---------|---------|----------|---------|-7-------|-------


E---------|----------|-------------------------------------
B---------|----------|-------------------------------------
G-----0---|----------|-------------------------------------
D---------|-----7777-|-------------------------------------
A---8---8-|---7-7777-|-------------------------------------
E-6-------|-5---5555-|-------------------------------------

CHORUS (x8)

OUTRO

E---------|---------|---------|---------|---------|--------
B---------|---------|---------|---------|---------|--------
G-----0---|-----0---|-----0---|-----0---|-----0---|--------
D---------|---------|---------|---------|---------|--------
A---9---9-|---9---9-|---9---9-|---9---9-|---8---8-|--------
E-7-------|-7-------|-7-------|-7-------|-6-------|--------

E---------|---------|---------|----------|-----------------
B---------|---------|---------|----------|-----------------
G-----0---|---------|-6-------|-7--------|-----------------
D---------|-----7---|---7-----|-7--------|-----------------
A---8---8-|---7---7-|-----7---|-5--------|-----------------
E-6-------|-5-------|-------5-|----------|-----------------
Comments