Sugarcult - Bouncing Off The Walls Chords & Tabs

 

Bouncing Off The Walls Chords & Tabs

Sugarcult Chords & Tabs

Version: 5 Type: Tab 0 ratings
1 star 2 stars 3 stars 4 stars 5 stars
comments

Bouncing Off The Walls Tab

its a half a step down 
and its just the verse and chorus
this is my first tab so dont hate
[ Tab from: http://www.guitartabs.cc/tabs/s/sugarcult/bouncing_off_the_walls_tab_ver_5.html ]
verse
------------------------------------
------------------------------------
-------7-7--5-5-5-5-----------------
--5-5--7-7--5-5-5-5-----------------
--5-5--5-5--3-3-3-3-----------------
--3-3-------------------------------
just repeat a lot


chorus
------------------------------------
------------------------------------
-------5-5--7-----4-----------------
--2-2--5-5--7--7--4--5--------------
--2-0--3-3--5--7--2--5--------------
--0-0----------5-----3--------------
repeat some 
Comments