Sugarcult - Bouncing Off The Walls Chords & Tabs

 

Bouncing Off The Walls Chords & Tabs

Sugarcult Chords & Tabs

Version: 4 Type: Tab 0 ratings
1 star 2 stars 3 stars 4 stars 5 stars
comments

Bouncing Off The Walls Tab

Intro/Verse
I'm Bouncing off the walls again....

E---------------------
B---------------------
G------6-6---4-4------
D-4-4--6-6---4-4------
A-4-4--4-4---2-2------
E-2-2-----------------
[ Tab from: http://www.guitartabs.cc/tabs/s/sugarcult/bouncing_off_the_walls_tab_ver_4.html ]
Chorus(3x)
My heart's beating out of my chest.....
E----------------------------------
B----------------------------------
G--8-8--4-4--6---8--10-------------
D--8-8--4-4--6---8--10-------------
A--6-6--2-2- 4---6--8--------------
E----------------------------------
then....
E------------------------------
B------------------------------
G---6--6--6--6-----------------
D---6--6--6--6-----------------
A---4--4--4--4-----------------
E------------------------------

During the Solo just play the intro because i didnt want to figure out the solo.

Bridge(Palm Muted)
E----------------------------------
B----------------------------------
G--8-8-8-8--4-4--6-6---------------
D--8-8-8-8--4-4--6-6---------------
A--6-6-6-6--2-2--4-4---------------
E----------------------------------

It's a pretty easy song. Enjoy.
Comments