Sugarcult - Bouncing Off The Walls Again Chords & Tabs

 

Bouncing Off The Walls Again Chords & Tabs

Sugarcult Chords & Tabs

Version: 1 Type: Tab 0 ratings
1 star 2 stars 3 stars 4 stars 5 stars
comments

Bouncing Off The Walls Again Tab

hey guys, this is not a hard song to play, 
it is very easy, you'll learn it fast, 

intro 1st part 
E---------------------------------------------------------
G---------------------------------------------------------
B---------------------------------------------------------
D---555--7777--9999999------------------------------------
A---555--5555--7777777------------------------------------
E---333---------------------------------------------------
intro 2nd part
add masive distortion 
and repeat intro 
[ Tab from: http://www.guitartabs.cc/tabs/s/sugarcult/bouncing_off_the_walls_again_tab.html ]
verse
D----9---------------------------------------------------------
A----9-------------------------7-7-7-7-------------------------
E----7-(repeat through verse)--5-5-5-5---(play at ending of verse)

chorus uses intro 

verse repeat 

interlude 1st part
E-------------0----0-------------------------------------
G---9----9------9----9---------------------------------- repeat 2
B-----8----8--------------------------------------------
D--------------------------------------------------------

interlude part 2

E-------------------------------------------------
G-------7-6-2------------------------------------repeat 4 
B-------------------------------------------------

thats pretty much the whole song, well i wrote on some only three strings cuz 
i am 2 lazy to write all six strings..
Comments