Sugarcult - Back To California Chords & Tabs

 

Back To California Chords & Tabs

Sugarcult Chords & Tabs

Version: 6 Type: Tab

Back To California Tab

Artist: Sugarcult
Song: Back To California
Album: Palm Trees And Power Lines

Tabbed by: Revlin

Okay, so there's a few tabs for this song, but I didn't feel that any singular one
was completleycorrect. This is the most acurate way to play it, I feel... Enjoy.


Intro/Verse/Chorus
e|--------------------------------|
B|------------3----2----5----3----|
G|--2----2----2----2----2----2----|
D|--4----2----0x4--0x4--0x4--0x3--|
A|--4x8--0x8----------------------|
E|--------------------------------|


Bridge 1
e|--------------|
B|--------------|
G|--9-----7-----|
D|--9-----7-----|
A|--7x16--5x16--|
E|--------------|x2

[ Tab from: http://www.guitartabs.cc/tabs/s/sugarcult/back_to_california_tab_ver_6.html ]
Chorus Ending
e|----------------------------|
B|----------------------------|
G|--2----7----9----11---13----|
D|--4----7----9----11---13----|
A|--4x8--5x8--7x4--9x4--11x8--|
E|----------------------------|
("We couldn't win in the end...")


Pre-Verse (2:20)
e|-------------------------|
B|-------------------------|
G|--2-2---2-2---2-2---2-2--|
D|--4-4---4-4---2-2---2-2--|
A|--4-4---4-4---0-0---0-0--|
E|-------------------------|


Bridge 2
e|----0-5---0-5---0-5---0-5---0-2---0-2---0-2---0-2--|
B|--2-----2-----2-----2-----0-----0-----0-----0------|
G|---------------------------------------------------|
D|---------------------------------------------------|
A|---------------------------------------------------|
E|---------------------------------------------------|


Comments, corrections, e-mail me at SoftAsylum@gmail.com