Sugarcoma - Zerostar Chords & Tabs

 

Zerostar Chords & Tabs

Sugarcoma Chords & Tabs

Version: 1 Type: Tab 0 ratings
1 star 2 stars 3 stars 4 stars 5 stars
comments

Zerostar Tab

 ==========================================
SUGARCOMA - ZEROSTAR from Becoming Something Else LP
==========================================

by God of F**k

Tuning - Standard EADGBE


Key
==========
x - mute
pm - palm mute
==========


Intro
===
---------------------------------------------------------------------
---------2---------------7-----------------5------------------------
------2----2----------7----7-------------5----5-------------7----9---
---2---------2------7----------7------5---------5--------7------9----
-0-------------0--5---------------5-3--------------3---5-------7-----
---------------------------------------------------------------------


Chorus
=====
-----------------------------------------------------------------
-----------------------------------------------------------------
--2-2-2-2-2-2----7-7-7-7-7-7------------------12-12-12-12-12-12--
--2-2-2-2-2-2----7-7-7-7-7-7---2-2-2-2-2-2----12-12-12-12-12-12--
--0-0-0-0-0-0----5-5-5-5-5-5---2-2-2-2-2-2----10-10-10-10-10-10--
-------------------------------0-0-0-0-0-0-----------------------

[ Tab from: http://www.guitartabs.cc/tabs/s/sugarcoma/zerostar_tab.html ]
Bridge
=====
-----------------------------------------------------
-----------------------------------------------------
-----------------------------------------------------
---2-x-x-2---2-x-x-2---2-x-x-2----3-3-3--5-5-5-------
---2-x-x-2---2-x-x-2---2-x-x-2----3-3-3--5-5-5-------
---0-x-x-0---0-x-x-0---0-x-x-0----1-1-1--3-3-3-------

Pm---------------------------------------------------------------]
-----------------------------------------------------------------
-----------------------------------------------------------------
-----------------------------------------------------------------
-2-2-2-2-2-2-2-2---7-7-7-7--3-3-3-3---10-10-10-10-10-10-10-10----
-2-2-2-2-2-2-2-2---7-7-7-7--3-3-3-3---10-10-10-10-10-10-10-10----
-0-0-0-0-0-0-0-0---5-5-5-5--1-1-1-1----8---8---8--8---8--8--8----

Pm------------------------------------------------------------------]
---------------------------------------------------------------------
---------------------------------------------------------------------
---------------------------------------------------------------------
-9-9-9-9--3-3-3-3--2-2-2-2-2-2-2-2--7-7-7-7--3-3-3-3--10-10-10-10-10-
-9-9-9-9--3-3-3-3--2-2-2-2-2-2-2-2--7-7-7-7--3-3-3-3--10-10-10-10-10-
-7-7-7-7--1-1-1-1--0-0-0-0-0-0-0-0--5-5-5-5--1-1-1-1---8---8---8---8-

------------------------
------------------------
-10-10-10-10---9--------
-10-10-10-10---9--------
--8--8--8--8---7--------
------------------------
Comments