Sugarcoma - You Drive Me Crazy Chords & Tabs

 

You Drive Me Crazy Chords & Tabs

Sugarcoma Chords & Tabs

Version: 4 Type: Tab 0 ratings
1 star 2 stars 3 stars 4 stars 5 stars
comments

You Drive Me Crazy Tab

   
Artist / Band - SugarComa
Album - Becoming Something Else
Track Name - (You Drive Me) Crazy
Tabber - Keith Fusco
Email Address - keith_fusco_the_offspring_fan@yahoo.co.uk

This is the cool new song from this kick ass band. It took me about
an hour and a half to tab so please give me sum credit for it. If
you have any comments, corrections, or if you want me to tab any
song please feel free to email me and I will try my best to tab it
for you.

Notes:

This is the way I play this song because it sound more punk like
than the origional SugarComa version. The way that SugarComa play it
is to put the guitar into drop D tuning (D,A,D,G,B,E). Then play
like this...

E |-----------------|
B |-----------------|
G |-----------------|
D |-8-8-\-3-3-/-4-4-|
A |-8-8-\-3-3-/-4-4-|
D |-8-8-\-3-3-/-4-4-|

Legend:

p - Pull Off
pm - Palm Muted
* - Let Ring
\ - Slide Down Neck
/ - Slide Up neck

Standard Tuning (E,A,D,G,B,E)

Intro

E |-------------------|
B |-------------------|
G |-------------------|
D |-10-10-\-5-5-/-6-6-|
A |-10-10-\-5-5-/-6-6-|
E |--8--8-\-3-3-/-4-4-|

E |--------------------------------------------|
B |--------------------------------------------|
G |--------------------------------------------|
D |-10-10-\-5-5-/-6-6*-6-\-5-5-5-\-10*-10-10-p-|
A |-10-10-\-5-5-/-6-6--6-\-5-5-5-\-10--10-10-p-|
E |--8--8-\-3-3-/-4-4--4-\-3-3-3-\--8---8--8-p-|

E |--------------------------------------------|
B |--------------------------------------------|
G |--------------------------------------------|
D |-10-10-\-5-5-/-6-6*-6-\-5-5-5-\-10*-10-10-p-|
A |-10-10-\-5-5-/-6-6--6-\-5-5-5-\-10--10-10-p-|
E |--8--8-\-3-3-/-4-4--4-\-3-3-3-\--8---8--8-p-|

Verse (Palm Muted)

E |--------------------------------------------|
B |--------------------------------------------|
G |--------------------------------------------|
D |-10-10-\-5-5-/-6-6*-6-\-5-5-5-\-10*-10-10-p-|
A |-10-10-\-5-5-/-6-6--6-\-5-5-5-\-10--10-10-p-|
E |--8--8-\-3-3-/-4-4--4-\-3-3-3-\--8---8--8-p-|

E |--------------------------------------------|
B |--------------------------------------------|
G |--------------------------------------------|
D |-10-10-\-5-5-/-6-6*-6-\-5-5-5-\-10*-10-10-p-|
A |-10-10-\-5-5-/-6-6--6-\-5-5-5-\-10--10-10-p-|
E |--8--8-\-3-3-/-4-4--4-\-3-3-3-\--8---8--8-p-|

E |--------------------------------------------|
B |--------------------------------------------|
G |--------------------------------------------|
D |-10-10-\-5-5-/-6-6*-6-\-5-5-5-\-10*-10-10-p-|
A |-10-10-\-5-5-/-6-6--6-\-5-5-5-\-10--10-10-p-|
E |--8--8-\-3-3-/-4-4--4-\-3-3-3-\--8---8--8-p-|

E |--------------------------------------|
B |--------------------------------------|
G |--------------------------------------|
D |-10-10-\-5-5-/-6-6*-6-\-5-5-5-\-10*-\-|
A |-10-10-\-5-5-/-6-6--6-\-5-5-5-\-10--\-|
E |--8--8-\-3-3-/-4-4--4-\-3-3-3-\--8--\-|

Bridge

E |---------------------------------------------------------------|
B |---------------------------------------------------------------|
G |---------------------------------------------------------------|
D |-3-3-3-3-3-3-3-3-/-5-5-5-5-5-5-5-5-/-6-6-6-6-6-6-6-6-\-5-5-5---|
A |-3-3-3-3-3-3-3-3-/-5-5-5-5-5-5-5-5-/-6-6-6-6-6-6-6-6-\-5-5-5---|
E |-1-1-1-1-1-1-1-1-/-3-3-3-3-3-3-3-3-/-4-4-4-4-4-4-4-4-\-3-3-3---|
     |-----pm----|     |-----pm----|     |-----pm----|     |pm----|

E |-------------|
B |-------------|
G |-------------|
D |-5-5-5-5-5-/-|
A |-5-5-5-5-5-/-|
E |-3-3-3-3-3-/-|
   |--pm---|

Chorus

E |--------------------------------------------|
B |--------------------------------------------|
G |--------------------------------------------|
D |-10-10-\-5-5-/-6-6*-6-\-5-5-5-\-10*-10-10-p-|
A |-10-10-\-5-5-/-6-6--6-\-5-5-5-\-10--10-10-p-|
E |--8--8-\-3-3-/-4-4--4-\-3-3-3-\--8---8--8-p-|

E |--------------------------------------------|
B |--------------------------------------------|
G |--------------------------------------------|
D |-10-10-\-5-5-/-6-6*-6-\-5-5-5-\-10*-10-10-p-|
A |-10-10-\-5-5-/-6-6--6-\-5-5-5-\-10--10-10-p-|
E |--8--8-\-3-3-/-4-4--4-\-3-3-3-\--8---8--8-p-|

E |--------------------------------------------|
B |--------------------------------------------|
G |--------------------------------------------|
D |-10-10-\-5-5-/-6-6*-6-\-8-8-8-\-13*-13-13-p-|
A |-10-10-\-5-5-/-6-6--6-\-8-8-8-\-13--13-13-p-|
E |--8--8-\-3-3-/-4-4--4-\-6-6-6-\-11--11-11-p-|

E |--------------------------------------------|
B |--------------------------------------------|
G |--------------------------------------------|
D |-10-10-\-5-5-/-6-6*-6-\-5-5-5-\-10*-10-10-p-|
A |-10-10-\-5-5-/-6-6--6-\-5-5-5-\-10--10-10-p-|
E |--8--8-\-3-3-/-4-4--4-\-3-3-3-\--8---8--8-p-|

Verse (Palm Muted)

E |--------------------------------------------|
B |--------------------------------------------|
G |--------------------------------------------|
D |-10-10-\-5-5-/-6-6*-6-\-5-5-5-\-10*-10-10-p-|
A |-10-10-\-5-5-/-6-6--6-\-5-5-5-\-10--10-10-p-|
E |--8--8-\-3-3-/-4-4--4-\-3-3-3-\--8---8--8-p-|

E |--------------------------------------------|
B |--------------------------------------------|
G |--------------------------------------------|
D |-10-10-\-5-5-/-6-6*-6-\-5-5-5-\-10*-10-10-p-|
A |-10-10-\-5-5-/-6-6--6-\-5-5-5-\-10--10-10-p-|
E |--8--8-\-3-3-/-4-4--4-\-3-3-3-\--8---8--8-p-|

E |--------------------------------------------|
B |--------------------------------------------|
G |--------------------------------------------|
D |-10-10-\-5-5-/-6-6*-6-\-5-5-5-\-10*-10-10-p-|
A |-10-10-\-5-5-/-6-6--6-\-5-5-5-\-10--10-10-p-|
E |--8--8-\-3-3-/-4-4--4-\-3-3-3-\--8---8--8-p-|

E |--------------------------------------|
B |--------------------------------------|
G |--------------------------------------|
D |-10-10-\-5-5-/-6-6*-6-\-5-5-5-\-10*-\-|
A |-10-10-\-5-5-/-6-6--6-\-5-5-5-\-10--\-|
E |--8--8-\-3-3-/-4-4--4-\-3-3-3-\--8--\-|

Bridge
[ Tab from: http://www.guitartabs.cc/tabs/s/sugarcoma/you_drive_me_crazy_tab_ver_4.html ]
E |---------------------------------------------------------------|
B |---------------------------------------------------------------|
G |---------------------------------------------------------------|
D |-3-3-3-3-3-3-3-3-/-5-5-5-5-5-5-5-5-/-6-6-6-6-6-6-6-6-\-5-5-5---|
A |-3-3-3-3-3-3-3-3-/-5-5-5-5-5-5-5-5-/-6-6-6-6-6-6-6-6-\-5-5-5---|
E |-1-1-1-1-1-1-1-1-/-3-3-3-3-3-3-3-3-/-4-4-4-4-4-4-4-4-\-3-3-3---|
     |-----pm----|   |-----pm----|     |-----pm----|     |pm------|

E |-------------|
B |-------------|
G |-------------|
D |-5-5-5-5-5-/-|
A |-5-5-5-5-5-/-|
E |-3-3-3-3-3-/-|
   |--pm---|

Chorus

E |--------------------------------------------|
B |--------------------------------------------|
G |--------------------------------------------|
D |-10-10-\-5-5-/-6-6*-6-\-5-5-5-\-10*-10-10-p-|
A |-10-10-\-5-5-/-6-6--6-\-5-5-5-\-10--10-10-p-|
E |--8--8-\-3-3-/-4-4--4-\-3-3-3-\--8---8--8-p-|

E |--------------------------------------------|
B |--------------------------------------------|
G |--------------------------------------------|
D |-10-10-\-5-5-/-6-6*-6-\-5-5-5-\-10*-10-10-p-|
A |-10-10-\-5-5-/-6-6--6-\-5-5-5-\-10--10-10-p-|
E |--8--8-\-3-3-/-4-4--4-\-3-3-3-\--8---8--8-p-|

E |--------------------------------------------|
B |--------------------------------------------|
G |--------------------------------------------|
D |-10-10-\-5-5-/-6-6*-6-\-8-8-8-\-13*-13-13-p-|
A |-10-10-\-5-5-/-6-6--6-\-8-8-8-\-13--13-13-p-|
E |--8--8-\-3-3-/-4-4--4-\-6-6-6-\-11--11-11-p-|

E |--------------------------------------------|
B |--------------------------------------------|
G |--------------------------------------------|
D |-10-10-\-5-5-/-6-6*-6-\-5-5-5-\-10*-10-10-p-|
A |-10-10-\-5-5-/-6-6--6-\-5-5-5-\-10--10-10-p-|
E |--8--8-\-3-3-/-4-4--4-\-3-3-3-\--8---8--8-p-|

Solo

E |---------------------------------------------------------------|
B |---------------------------------------------------------------|
G |---------------------------------------------------------------|
D |-13-10*-10-12-12-10-10-8----13-13-10-13-10*-9-10-12-10*-13-10*-|
A |-------------------------10------------------------------------|
E |---------------------------------------------------------------|

E |--------------------------------------------|
B |--------------------------------------------|
G |--------------------------------------------|
D |-10-12-12-10-13*-13-13-10-13-10*-9-10-12-10-|
A |--------------------------------------------|
E |--------------------------------------------|

Bridge

E |---------------------------------------------------------------|
B |---------------------------------------------------------------|
G |---------------------------------------------------------------|
D |-3-3-3-3-3-3-3-3-/-5-5-5-5-5-5-5-5-/-6-6-6-6-6-6-6-6-\-5-5-5---|
A |-3-3-3-3-3-3-3-3-/-5-5-5-5-5-5-5-5-/-6-6-6-6-6-6-6-6-\-5-5-5---|
E |-1-1-1-1-1-1-1-1-/-3-3-3-3-3-3-3-3-/-4-4-4-4-4-4-4-4-\-3-3-3---|
     |-----pm----|   |-----pm----|     |-----pm----|     |pm------|

E |-------------|
B |-------------|
G |-------------|
D |-5-5-5-5-5-/-|
A |-5-5-5-5-5-/-|
E |-3-3-3-3-3-/-|
   |--pm---|

Chorus / Outro

E |--------------------------------------------|
B |--------------------------------------------|
G |--------------------------------------------|
D |-10-10-\-5-5-/-6-6*-6-\-5-5-5-\-10*-10-10-p-|
A |-10-10-\-5-5-/-6-6--6-\-5-5-5-\-10--10-10-p-|
E |--8--8-\-3-3-/-4-4--4-\-3-3-3-\--8---8--8-p-|

E |--------------------------------------------|
B |--------------------------------------------|
G |--------------------------------------------|
D |-10-10-\-5-5-/-6-6*-6-\-5-5-5-\-10*-10-10-p-|
A |-10-10-\-5-5-/-6-6--6-\-5-5-5-\-10--10-10-p-|
E |--8--8-\-3-3-/-4-4--4-\-3-3-3-\--8---8--8-p-|

E |--------------------------------------------|
B |--------------------------------------------|
G |--------------------------------------------|
D |-10-10-\-5-5-/-6-6*-6-\-8-8-8-\-13*-13-13-p-|
A |-10-10-\-5-5-/-6-6--6-\-8-8-8-\-13--13-13-p-|
E |--8--8-\-3-3-/-4-4--4-\-6-6-6-\-11--11-11-p-|

E |--------------------------------------------|
B |--------------------------------------------|
G |--------------------------------------------|
D |-10-10-\-5-5-/-6-6*-6-\-5-5-5-\-10*-10-10-p-|
A |-10-10-\-5-5-/-6-6--6-\-5-5-5-\-10--10-10-p-|
E |--8--8-\-3-3-/-4-4--4-\-3-3-3-\--8---8--8-p-|

E |--------------------------------------------|
B |--------------------------------------------|
G |--------------------------------------------|
D |-10-10-\-5-5-/-6-6*-6-\-5-5-5-\-10*-10-10-p-|
A |-10-10-\-5-5-/-6-6--6-\-5-5-5-\-10--10-10-p-|
E |--8--8-\-3-3-/-4-4--4-\-3-3-3-\--8---8--8-p-|

E |--------------------------------------------|
B |--------------------------------------------|
G |--------------------------------------------|
D |-10-10-\-5-5-/-6-6*-6-\-5-5-5-\-10*-10-10-p-|
A |-10-10-\-5-5-/-6-6--6-\-5-5-5-\-10--10-10-p-|
E |--8--8-\-3-3-/-4-4--4-\-3-3-3-\--8---8--8-p-|

E |--------------------------------------------|
B |--------------------------------------------|
G |--------------------------------------------|
D |-10-10-\-5-5-/-6-6*-6-\-8-8-8-\-13*-13-13-p-|
A |-10-10-\-5-5-/-6-6--6-\-8-8-8-\-13--13-13-p-|
E |--8--8-\-3-3-/-4-4--4-\-6-6-6-\-11--11-11-p-|

E |--------------------------------------------|
B |--------------------------------------------|
G |--------------------------------------------|
D |-10-10-\-5-5-/-6-6*-6-\-5-5-5-\-10*-10-10-*-|
A |-10-10-\-5-5-/-6-6--6-\-5-5-5-\-10--10-10-*-|
E |--8--8-\-3-3-/-4-4--4-\-3-3-3-\--8---8--8-*-|

Lyrics

Baby, I'm So Into You
You Got That Something What Can I Do
Baby, You Spin Me Around
The Earth Is Moving, But I Can't Feel The Ground

Everytime You Look At Me
The Earth Is Moving It's Easy To see

You Drive Me Crazy
I Just Can't Sleep
I'm So Excited I'm In Too Deep
Crazy, But It Feels All Right
Baby Keep It Up, It Keeps Me Up All Night

Tell Me, That You're So Into Me
That I'm The Only One You Will See
Tell Me, I'm Not In The Blue
And I'm Not Wasting My Feelings On You

Everytime I Look At You
My Heart Is Jumping, What Can I Do?

You Drive Me Crazy
I Just Can't Sleep
I'm So Excited I'm In Too Deep
Crazy, But It Feels All Right
Baby Keep It Up, It Keeps Me Up All Night

Everytime You Look At Me
The Earth Is Moving It's Easy To see

You Drive Me Crazy
I Just Can't Sleep
I'm So Excited I'm In Too Deep
Crazy, But It Feels All Right
Baby Keep It Up, It Keeps Me Up All Night

Crazy !!!
Crazy !!!
Crazy !!!
Crazy !!!
Comments