Sugarcoma - Crazy Chords & Tabs

 

Crazy Chords & Tabs

Sugarcoma Chords & Tabs

Version: 4 Type: Tab 0 ratings
1 star 2 stars 3 stars 4 stars 5 stars
comments

Crazy Tab

   
Artist / band: SugarComa 
Album: Becoming Something Else
Track number: 12
Track name: (You Drive Me) Crazy
Tabber: Keith Fusco 
Email address: koro_guitarist@hotmail.com 
Web page: http://punkrockers.death-eater.net

This is a pretty awesome Britney Spears cover, but not a lot of people are that keen
on SugarComa. Me personally, I quite like them. Please email your comments and any
 corrections, or if you think any of the lyrics are wrong. Or if you want to request
a tab email me and I'll try my best to tab it and email it to you as soon as possible.


Legend: 

p - Pull off 
x - Mute 
* - Let ring 
\ - Slide down neck 
/ - Slide up neck 
pm - Palm muted 

Drop D (D,A,D,G,B,e)

Intro:

E |------------------|
B |------------------|
G |------------------|
D |-8-8-\-3-3-/-4-4p-|
A |-8-8-\-3-3-/-4-4p-|
D |-8-8-\-3-3-/-4-4p-|

E |--------------------------------------|
B |--------------------------------------|
G |--------------------------------------|
D |-8-8-\-3-3-/-4-4*-4-\-3-3-3-/-8*-8-8p-|
A |-8-8-\-3-3-/-4-4*-4-\-3-3-3-/-8*-8-8p-|
D |-8-8-\-3-3-/-4-4*-4-\-3-3-3-/-8*-8-8p-|

E |--------------------------------------|
B |--------------------------------------|
G |--------------------------------------|
D |-8-8-\-3-3-/-4-4*-4-\-3-3-3-/-8*-8-8p-|
A |-8-8-\-3-3-/-4-4*-4-\-3-3-3-/-8*-8-8p-|
D |-8-8-\-3-3-/-4-4*-4-\-3-3-3-/-8*-8-8p-|

Verse:

E |--------------------------------------|
B |--------------------------------------|
G |--------------------------------------|
D |-8-8-\-3-3-/-4-4*-4-\-3-3-3-/-8*-8-8p-|
A |-8-8-\-3-3-/-4-4*-4-\-3-3-3-/-8*-8-8p-|
D |-8-8-\-3-3-/-4-4*-4-\-3-3-3-/-8*-8-8p-|
   |-----------------pm------------------|

E |--------------------------------------|
B |--------------------------------------|
G |--------------------------------------|
D |-8-8-\-3-3-/-4-4*-4-\-3-3-3-/-8*-8-8p-|
A |-8-8-\-3-3-/-4-4*-4-\-3-3-3-/-8*-8-8p-|
D |-8-8-\-3-3-/-4-4*-4-\-3-3-3-/-8*-8-8p-|
   |-----------------pm------------------|

E |--------------------------------------|
B |--------------------------------------|
G |--------------------------------------|
D |-8-8-\-3-3-/-4-4*-4-\-3-3-3-/-8*-8-8p-|
A |-8-8-\-3-3-/-4-4*-4-\-3-3-3-/-8*-8-8p-|
D |-8-8-\-3-3-/-4-4*-4-\-3-3-3-/-8*-8-8p-|
   |-----------------pm------------------|

E |-----------------------------------|
B |-----------------------------------|
G |-----------------------------------|
D |-8-8-\-3-3-/-4-4*-4-\-3-3-3-/-8*-\-|
A |-8-8-\-3-3-/-4-4--4-\-3-3-3-/-8*-\-|
D |-8-8-\-3-3-/-4-4--4-\-3-3-3-/-8*-\-|
   |--------------pm-----------------|

Bridge (Add palm muting here and there):

E |---------------------------------------------------------------|
B |---------------------------------------------------------------|
G |---------------------------------------------------------------|
D |-1-1-1-1-1-1-1-1-/-3-3-3-3-3-3-3-3-/-4-4-4-4-4-4-4-4-\-3-3-3-3-|
A |-1-1-1-1-1-1-1-1-/-3-3-3-3-3-3-3-3-/-4-4-4-4-4-4-4-4-\-3-3-3-3-|
D |-1-1-1-1-1-1-1-1-/-3-3-3-3-3-3-3-3-/-4-4-4-4-4-4-4-4-\-3-3-3-3-|

E |-----------|
B |-----------|
G |-----------|
D |-3-3-3-3-/-|
A |-3-3-3-3-/-|
D |-3-3-3-3-/-|

Chorus:

E |--------------------------------------|
B |--------------------------------------|
G |--------------------------------------|
D |-8-8-\-3-3-/-4-4*-4-\-3-3-3-/-8*-8-8p-|
A |-8-8-\-3-3-/-4-4*-4-\-3-3-3-/-8*-8-8p-|
D |-8-8-\-3-3-/-4-4*-4-\-3-3-3-/-8*-8-8p-|

E |--------------------------------------|
B |--------------------------------------|
G |--------------------------------------|
D |-8-8-\-3-3-/-4-4*-4-\-3-3-3-/-8*-8-8p-|
A |-8-8-\-3-3-/-4-4*-4-\-3-3-3-/-8*-8-8p-|
D |-8-8-\-3-3-/-4-4*-4-\-3-3-3-/-8*-8-8p-|

E |-----------------------------------------|
B |-----------------------------------------|
G |-----------------------------------------|
D |-8-8-\-3-3-/-4-4*-4-\-3-3-3-/-11*-11-11p-|
A |-8-8-\-3-3-/-4-4*-4-\-3-3-3-/-11*-11-11p-|
D |-8-8-\-3-3-/-4-4*-4-\-3-3-3-/-11*-11-11p-|

E |--------------------------------------|
B |--------------------------------------|
G |--------------------------------------|
D |-8-8-\-3-3-/-4-4*-4-\-3-3-3-/-8*-8-8p-|
A |-8-8-\-3-3-/-4-4*-4-\-3-3-3-/-8*-8-8p-|
D |-8-8-\-3-3-/-4-4*-4-\-3-3-3-/-8*-8-8p-|

Verse:

E |--------------------------------------|
B |--------------------------------------|
G |--------------------------------------|
D |-8-8-\-3-3-/-4-4*-4-\-3-3-3-/-8*-8-8p-|
A |-8-8-\-3-3-/-4-4*-4-\-3-3-3-/-8*-8-8p-|
D |-8-8-\-3-3-/-4-4*-4-\-3-3-3-/-8*-8-8p-|
   |-----------------pm------------------|

E |--------------------------------------|
B |--------------------------------------|
G |--------------------------------------|
D |-8-8-\-3-3-/-4-4*-4-\-3-3-3-/-8*-8-8p-|
A |-8-8-\-3-3-/-4-4*-4-\-3-3-3-/-8*-8-8p-|
D |-8-8-\-3-3-/-4-4*-4-\-3-3-3-/-8*-8-8p-|
   |-----------------pm------------------|

E |--------------------------------------|
B |--------------------------------------|
G |--------------------------------------|
D |-8-8-\-3-3-/-4-4*-4-\-3-3-3-/-8*-8-8p-|
A |-8-8-\-3-3-/-4-4*-4-\-3-3-3-/-8*-8-8p-|
D |-8-8-\-3-3-/-4-4*-4-\-3-3-3-/-8*-8-8p-|
   |-----------------pm------------------|

E |-----------------------------------|
B |-----------------------------------|
G |-----------------------------------|
D |-8-8-\-3-3-/-4-4*-4-\-3-3-3-/-8*-\-|
A |-8-8-\-3-3-/-4-4--4-\-3-3-3-/-8*-\-|
D |-8-8-\-3-3-/-4-4--4-\-3-3-3-/-8*-\-|
   |--------------pm-----------------|

Bridge (Add palm muting here and there):
[ Tab from: http://www.guitartabs.cc/tabs/s/sugarcoma/crazy_tab_ver_4.html ]
E |---------------------------------------------------------------|
B |---------------------------------------------------------------|
G |---------------------------------------------------------------|
D |-1-1-1-1-1-1-1-1-/-3-3-3-3-3-3-3-3-/-4-4-4-4-4-4-4-4-\-3-3-3-3-|
A |-1-1-1-1-1-1-1-1-/-3-3-3-3-3-3-3-3-/-4-4-4-4-4-4-4-4-\-3-3-3-3-|
D |-1-1-1-1-1-1-1-1-/-3-3-3-3-3-3-3-3-/-4-4-4-4-4-4-4-4-\-3-3-3-3-|

E |-----------|
B |-----------|
G |-----------|
D |-3-3-3-3-/-|
A |-3-3-3-3-/-|
D |-3-3-3-3-/-|

Chorus:

E |--------------------------------------|
B |--------------------------------------|
G |--------------------------------------|
D |-8-8-\-3-3-/-4-4*-4-\-3-3-3-/-8*-8-8p-|
A |-8-8-\-3-3-/-4-4*-4-\-3-3-3-/-8*-8-8p-|
D |-8-8-\-3-3-/-4-4*-4-\-3-3-3-/-8*-8-8p-|

E |--------------------------------------|
B |--------------------------------------|
G |--------------------------------------|
D |-8-8-\-3-3-/-4-4*-4-\-3-3-3-/-8*-8-8p-|
A |-8-8-\-3-3-/-4-4*-4-\-3-3-3-/-8*-8-8p-|
D |-8-8-\-3-3-/-4-4*-4-\-3-3-3-/-8*-8-8p-|

E |-----------------------------------------|
B |-----------------------------------------|
G |-----------------------------------------|
D |-8-8-\-3-3-/-4-4*-4-\-3-3-3-/-11*-11-11p-|
A |-8-8-\-3-3-/-4-4*-4-\-3-3-3-/-11*-11-11p-|
D |-8-8-\-3-3-/-4-4*-4-\-3-3-3-/-11*-11-11p-|

E |--------------------------------------|
B |--------------------------------------|
G |--------------------------------------|
D |-8-8-\-3-3-/-4-4*-4-\-3-3-3-/-8*-8-8p-|
A |-8-8-\-3-3-/-4-4*-4-\-3-3-3-/-8*-8-8p-|
D |-8-8-\-3-3-/-4-4*-4-\-3-3-3-/-8*-8-8p-|

Solo (I recommend using a wah-wah type effect here):

E |---------------------------------------------------------------|
B |---------------------------------------------------------------|
G |---------------------------------------------------------------|
D |-13-10*-10-12-12-10-10-8----13-13-10-13-10*-9-10-12-10*-13-10*-|
A |-------------------------10------------------------------------|
D |---------------------------------------------------------------|

E |--------------------------------------------|
B |--------------------------------------------|
G |--------------------------------------------|
D |-10-12-12-10-13*-13-13-10-13-10*-9-10-12-10-|
A |--------------------------------------------|
D |--------------------------------------------|

Bridge (Add palm muting here and there):

E |---------------------------------------------------------------|
B |---------------------------------------------------------------|
G |---------------------------------------------------------------|
D |-1-1-1-1-1-1-1-1-/-3-3-3-3-3-3-3-3-/-4-4-4-4-4-4-4-4-\-3-3-3-3-|
A |-1-1-1-1-1-1-1-1-/-3-3-3-3-3-3-3-3-/-4-4-4-4-4-4-4-4-\-3-3-3-3-|
D |-1-1-1-1-1-1-1-1-/-3-3-3-3-3-3-3-3-/-4-4-4-4-4-4-4-4-\-3-3-3-3-|

E |-----------|
B |-----------|
G |-----------|
D |-3-3-3-3-/-|
A |-3-3-3-3-/-|
D |-3-3-3-3-/-|

Chorus:

E |--------------------------------------|
B |--------------------------------------|
G |--------------------------------------|
D |-8-8-\-3-3-/-4-4*-4-\-3-3-3-/-8*-8-8p-|
A |-8-8-\-3-3-/-4-4*-4-\-3-3-3-/-8*-8-8p-|
D |-8-8-\-3-3-/-4-4*-4-\-3-3-3-/-8*-8-8p-|

E |--------------------------------------|
B |--------------------------------------|
G |--------------------------------------|
D |-8-8-\-3-3-/-4-4*-4-\-3-3-3-/-8*-8-8p-|
A |-8-8-\-3-3-/-4-4*-4-\-3-3-3-/-8*-8-8p-|
D |-8-8-\-3-3-/-4-4*-4-\-3-3-3-/-8*-8-8p-|

E |-----------------------------------------|
B |-----------------------------------------|
G |-----------------------------------------|
D |-8-8-\-3-3-/-4-4*-4-\-3-3-3-/-11*-11-11p-|
A |-8-8-\-3-3-/-4-4*-4-\-3-3-3-/-11*-11-11p-|
D |-8-8-\-3-3-/-4-4*-4-\-3-3-3-/-11*-11-11p-|

E |--------------------------------------|
B |--------------------------------------|
G |--------------------------------------|
D |-8-8-\-3-3-/-4-4*-4-\-3-3-3-/-8*-8-8p-|
A |-8-8-\-3-3-/-4-4*-4-\-3-3-3-/-8*-8-8p-|
D |-8-8-\-3-3-/-4-4*-4-\-3-3-3-/-8*-8-8p-|

E |--------------------------------------|
B |--------------------------------------|
G |--------------------------------------|
D |-8-8-\-3-3-/-4-4*-4-\-3-3-3-/-8*-8-8p-|
A |-8-8-\-3-3-/-4-4*-4-\-3-3-3-/-8*-8-8p-|
D |-8-8-\-3-3-/-4-4*-4-\-3-3-3-/-8*-8-8p-|

E |--------------------------------------|
B |--------------------------------------|
G |--------------------------------------|
D |-8-8-\-3-3-/-4-4*-4-\-3-3-3-/-8*-8-8p-|
A |-8-8-\-3-3-/-4-4*-4-\-3-3-3-/-8*-8-8p-|
D |-8-8-\-3-3-/-4-4*-4-\-3-3-3-/-8*-8-8p-|

E |-----------------------------------------|
B |-----------------------------------------|
G |-----------------------------------------|
D |-8-8-\-3-3-/-4-4*-4-\-3-3-3-/-11*-11-11p-|
A |-8-8-\-3-3-/-4-4*-4-\-3-3-3-/-11*-11-11p-|
D |-8-8-\-3-3-/-4-4*-4-\-3-3-3-/-11*-11-11p-|

E |--------------------------------------|
B |--------------------------------------|
G |--------------------------------------|
D |-8-8-\-3-3-/-4-4*-4-\-3-3-3-/-8*-8-8p-|
A |-8-8-\-3-3-/-4-4*-4-\-3-3-3-/-8*-8-8p-|
D |-8-8-\-3-3-/-4-4*-4-\-3-3-3-/-8*-8-8p-|

Lyrics:

Baby, I'm so into you. You got that something, what can I do? Baby, you spin me
around. The earth is moving, but I can't feel the ground.

Every time you look at me, the earth is moving, it's easy to see.

You drive me crazy, I just can't sleep. I'm so excited, I'm in too deep. Crazy,
but it feels alright. Baby keep it up, it keeps me up all night.

Tell me, that you're so into me. That I'm the only one you will see. Tell me,
I'm not in the blue and I'm not wasting my feelings on you.

Every time I look at you, my heart is jumping. What can I do?

You drive me crazy, I just can't sleep. I'm so excited, I'm in too deep. Crazy,
but it feels alright. Baby keep it up, it keeps me up all night.

Every time you look at me, the earth is moving, it's easy to see.

You drive me crazy, I just can't sleep. I'm so excited, I'm in too deep. Crazy,
but it feels alright. Baby keep it up, it keeps me up all night.

Crazy!
Crazy!
Crazy!
Crazy!
Comments