Sugarcoma - Crazy Chords & Tabs

 

Crazy Chords & Tabs

Sugarcoma Chords & Tabs

Version: 3 Type: Tab 0 ratings
1 star 2 stars 3 stars 4 stars 5 stars
comments

Crazy Tab

artist: SUGARCOMA
tabbed by yashveen

key
~~= let ring
^ = bend

intro
e-----------------------------------------------------------------
B-----------------------------------------------------------------
G-----------------------------------------------------------------
D---8--3--4~~---3---8---------------------------------------------
A---8--3--4~~---1---8---------------------------------------------
E---6--1--2~~---1---6---------------------------------------------
[ Tab from: http://www.guitartabs.cc/tabs/s/sugarcoma/crazy_tab_ver_3.html ]
solo
e-----------------------------------------------------------------
B--13^---10^----12--12--12---8-5^--13-13-10-13-10~-9-10-12-11~~---
G-----------------------------------------------------------------
D-----------------------------------------------------------------
A-----------------------------------------------------------------
E-----------------------------------------------------------------

solo (continued)
e-----------------------------------------------------------------
B--13^---10^--12--12--12~~--13-13-10-13-10~-9-10-12-11^-----------
G-----------------------------------------------------------------
D-----------------------------------------------------------------
A-----------------------------------------------------------------
E-----------------------------------------------------------------

ending( crazyyy,    crazyyyyy)
e-----------------------------------------------------------------
B--13^--13^-------------------------------------------------------
G-----------------------------------------------------------------
D-----------------------------------------------------------------
A-----------------------------------------------------------------
E-----------------------------------------------------------------
Comments